Zacznij systematycznie uczyć się grać na gitarze razem ze stroną Moja nauka - będziesz miał/miała do niej dostęp po zalogowaniu się w serwisie

Zamki na piasku (tab) - Lady Pank

Opracował -a: miki1234,
Dodał -a: miki1234,
Redaktor: Tomek Pietrzkowski,
Data publikacji: 2020-07-16 21:03
 
Moja nauka


Ups, problem :-/
Zaloguj się Mój śpiewnik
2 gitara refren  1, 2 i 3 refren gra się tak samo

--------------------------|    -----------------------------------0--------------|
--------------------------|    -----------------------------------0--------------|
--------------------------|    --------------------7-----6-----6-----------------|
--4--5--7--7--4--4--5--5--|x2  --------9--------7-----7-----7--------4--4--5--5--|x2
--4--5--7--7--4--4--5--5--|    -----9-----9--5-----------------------4--4--5--5--|
--2--3--5--5--2--2--3--3--|    --7-----------------------------------2--2--3--3--|


3 zwrotka                        przejście
--------------------------|    -----------------------0--------------------------0--|
--------------------------|    --------------------0--------------------------------|
--------------------------|    -----------------2--------------------------7-----2--|
--4--5--7--7--4--4--5--5--|x4  --------------------------------9--------7-----7-----|
--4--5--7--7--4--4--5--5--|    -------0--2------------------9-----9--5--------------|
--2--3--5--5--2--2--3--3--|    --2--3------2-3-----------7--------------------------|

Dodaj komentarz ...i/lub link do filmiku video

Zaloguj się do serwisu
Wszelkie materiały i wypowiedzi zamieszczone na www.chords.pl są własnością ich autorów.