Zacznij systematycznie uczyć się grać na gitarze razem ze stroną Moja nauka - będziesz miał/miała do niej dostęp po zalogowaniu się w serwisie

Mała Lady Punk - Lady Pank

Opracował -a: miki1234,
Dodał -a: miki1234,
Redaktor: Tomek Pietrzkowski,
Pochodzi z: https://www.chords.pl/
Data publikacji: 2020-07-16 21:06
 
Moja nauka


Ups, problem :-/
Zaloguj się Mój śpiewnik
e---------------------------------------2--0--------------0-----0-----------0--|
h------------------------7--5--4--------4--2--2--------0-----0--------0--0-----|
g---------------------4-----------4-----4--2-----2-----6-----8-----8-----6-----| x4
d------------------6-----------------6--4--2--------2--7-----9-----------7-----|
a-------------24------------------------2--0-----------7-----9-----------7-----|
e----0--2--4----------------------------2--0-----------------------------------|


zwrotka                             refren e    H

---------------------------------|     ------------------------------|
-------------------79--7--5--7---|     ------------------------------|
----6--6--4--2--2----------------| x4  ----9--X--8--X--6------68--8--| x4
----6--6--4--2--2----------------|     ----9--X--9--X--7----------9--|
----4--4--2--0--0----------------|     ----7--X--9--X--7--7-------9--|
----X--X--X----------------------|     ----7--X--7--X--5----------7--|

Dodaj komentarz ...i/lub link do filmiku video

Zaloguj się do serwisu
Wszelkie materiały i wypowiedzi zamieszczone na www.chords.pl są własnością ich autorów.