Zacznij systematycznie uczyć się grać na gitarze razem ze stroną Moja nauka - będziesz miał/miała do niej dostęp po zalogowaniu się w serwisie

Za ten jeden raz - Lady Pank

Opracowali: michicybo, Seba,
Dodał -a: michicybo,
Redaktor: Seba,
Pochodzi z: https://www.chords.pl/
Data publikacji: 2021-10-30 09:51
 
Moja nauka


Ups, problem :-/
Zaloguj się Mój śpiewnik
Wstęp:

E1|---------------------------
H|----------------------------
G|----------------------------
D|---6--6-6-6-6---------------
A|----------------6--6-6-6-6--
E6|---------------------------

E1|------------------------------------------------------------------|
H|-------------------------------------------------------------------|
G|-------------------------------------------------------------------|
D|---6-6--8-8--9-9-------------4-------------------------------------|--> grane również podczas zwrotki
A|------------------6-6-66-4-6---6---2-2-22-2-2--4-4-4-4-4-4----2-1--|
E6|----------------------------------0-0-00-0-0--2 2-2-2-2-2--2------|


Zwrotka:  gis  dis  x3
          E  Fis

Refren:  E  Fis  gis  H  x2
         E  Fis

2./3. refren:  E  Fis  gis  H  x4
               E  Fis


Tab dodany przez użytkownika Seba

Dodaj komentarz ...i/lub link do filmiku video

Zaloguj się do serwisu
Wszelkie materiały i wypowiedzi zamieszczone na www.chords.pl są własnością ich autorów.