Zacznij systematycznie uczyć się grać na gitarze razem ze stroną Moja nauka - będziesz miał/miała do niej dostęp po zalogowaniu się w serwisie

Wilcze stado - Lady Pank

Dodał -a: 120+120,
Pochodzi z: http://gitara.org/
Data publikacji: 2004-10-21 23:47
 
Moja nauka


Ups, problem :-/
Zaloguj się Mój śpiewnik
Zwrotka
---------------------------------------------------------------------------
---------------------------------------------------------------------------
---------------------------------------------------------------------------
--9--5--7--5------9--5--7--5-----9--5--7--5-----2--2--2--------------------
--9--5--7--5------9--5--7--5-----9--5--7--5-----2--2--2---------------5----
--7--3--5--3------7--3--5--3-----7--3--5--3-----0--0--0-0-0--3--5--7-------

przejście
---------------------------------------------------------------------------
---------------------------------------------------------------------------
---------------------------------------------------------------------------
--2--2--2----2-----------2--2--2-------------------------------------------
--2--2--2----2-----5-----2--2--2--------------5----------------------------
--0--0--0----0--0--------0--0--0--0-0-3-5--7-------------------------------


ZWROTKA
PRZEJŚCIE
ZWROTKA
SOLO NA PRZEJŚCIU

Dodaj komentarz ...i/lub link do filmiku video

Zaloguj się do serwisu
Wszelkie materiały i wypowiedzi zamieszczone na www.chords.pl są własnością ich autorów.