Zacznij systematycznie uczyć się grać na gitarze razem ze stroną Moja nauka - będziesz miał/miała do niej dostęp po zalogowaniu się w serwisie

Du du - Lady Pank

Opracował -a: miki1234,
Dodał -a: miki1234,
Redaktor: Tomek Pietrzkowski,
Data publikacji: 2020-09-14 21:06
 
Moja nauka


Ups, problem :-/
Zaloguj się Mój śpiewnik
intro

----------------------------------------------------------|
----------------------------------------------------------|
------------7-7-7-7-7-7-7--9-9-9-9------7/9-9-9-9-9--7-7--|
--5-5--5-5--7-7-7-7-7-7-7--9-9-9-9------7/9-9-9-9-9--7-7--|
--5-5--5-5--5-5-5-5-5-5-5--7-7-7-7------5/7-7-7-7-7--5-5--|
--3-3--3-3--5-5-5-5-5-7-5--7-7-7-7------5/7-7-7-7-7--5-5--|

--------------------------------------------------|
----------------------------------------8-7-------|
------------7-7-7-7-7-7-7--9-9-9-9--7/9-7-9--7-7--|
--5-5--5-5--7-7-7-7-7-7-7--9-9-9-9--7/9-9-9--7-7--|
--5-5--5-5--5-5-5-5-5-5-5--7-7-7-7--5/7-7-7--5-5--|
--3-3--3-3--5-5-5-5-5-7-5--7-7-7-7--5/7-7-7--5-5--|

--------------------------------------------------|
----------------------------------------8-7-------|
--4-4--4-4--7-7-7-7-7-7-7--9-9-9-9--7/9-7-9--7-7--|
--5-5--5-5--7-7-7-7-7-7-7--9-9-9-9--7/9-9-9--7-7--|  2x
--5-5--5-5--5-5-5-5-5-5-5--7-7-7-7--5/7-7-7--5-5--|
--3-3--3-3--5-5-5-5-5-7-5--7-7-7-7--5/7-7-7--5-5--|

zwrotka

--------------------------------------------------|
----------------------------------------8-7-------|
------------7-7-7-7-7-7-7--9-9-9-9--7/9-7-9--7-7--|
--5-5--5-5--7-7-7-7-7-7-7--9-9-9-9--7/9-9-9--7-7--|  4x
--5-5--5-5--5-5-5-5-5-5-5--7-7-7-7--5/7-7-7--5-5--|
--3-3--3-3--5-5-5-5-5-7-5--7-7-7-7--5/7-7-7--5-5--|

refren

--3-x-3-3-3--3-3-3-3--7-7-7-7--2-2-2-2-2-2-2--|
--5-x-5-5-5--3-3-3-3--8-8-8-8--4-4-4-4-4-4-4--|
--5-x-5-5-5--4-4-4-4--9-9-9-9--4-4-4-4-4-4-4--|
--5-x-5-5-5--5-5-5-5--9-9-9-9--4-4-4-4-4-4-4--|
--3-x-3-3-3--5-5-5-5--7-7-7-7--2-2-2-2-2-2-2--|
--3-x-3-3-3--3-3-3-3--7-7-7-7--2-2-2-2-2-2-2--|

Dodaj komentarz ...i/lub link do filmiku video

Zaloguj się do serwisu
Ostatnie komentarze
1.
120+120
2020-09-15 00:30
Oj nie ;) :P
Wszelkie materiały i wypowiedzi zamieszczone na www.chords.pl są własnością ich autorów.