Zacznij systematycznie uczyć się grać na gitarze razem ze stroną Moja nauka - będziesz miał/miała do niej dostęp po zalogowaniu się w serwisie

Tacy sami - wersja koncertowa - Lady Pank

Opracował -a: janek06,
Dodał -a: janek06,
Redaktor: Tomek Pietrzkowski,
Pochodzi z: https://www.chords.pl/
Data publikacji: 2020-06-29 21:06
 
Moja nauka


Ups, problem :-/
Zaloguj się Mój śpiewnik
Na koncercie ten utwór jest grany na gitarze przestrojonej o cały ton w dół.

      intro
        (overdrive lub distortion)

E|--------------------------||
H|--------------------------||
G|-----8--4--------4--------||
D|--------------6-----6-----||   x7
A|--4--------7-----------7--||
E|--------------------------||

      za ostatnim razem na koniec

         E|---------||
         H|---------||
         G|----6----||
         D|----6----||
         A|----4----||
         E|---------||


                             zwrotka

E|-------------------------|
H|-------------------------|
G|-----8--4--------4--6-6--|
D|--------------6-----6-6--|
A|--4--------7--------4-4--|
E|-------------------------|


E|-----------------------------------------||
H|-----------------------------------------||
G|-----------------------------------------||
D|-----------------------------------------|| x7
A|--4--2-----2-----------------2-----------||
E|--------4-----4--0--0--2--4-----4--2--0--||


     po zwrotce

   E|--------||
   H|-----2--||
   G|--6--2--||
   D|--6--2--||
   A|--4--0--||
   E|--------||



       2 zwrotka

E|--------------------------||    E|----------------------------------------||      
H|--------------------------||    H|----------------------------------------||      
G|-----8--4--------4--6-6---||    G|----------------------------------------||      
D|--------------6-----6-6---||    D|----------------------------------------||  x3  
A|--4--------7--------4-4---||    A|--4--2-----2----------------2-----------||      
E|--------------------------||    E|--------4----4--0--0--2--4-----4--2--0--||      

E|-----------------------|
H|-----------------------|
G|--6-----------------9--|
D|--6--------2--4--7--9--|
A|--4--2--4-----------7--|
E|-----------------------|

E|-----------------------------------------|-----------------------||
H|-----------------------------------------|-----------------------||
G|-----------------------------------------|--6-----------------9--||
D|-----------------------------------------|--6--------2--4--2--9--||
A|--4--2-----2-----------------2-----------|--4--2--4-----------7--||
E|--------4-----4--0--0--2--4-----4--2--0--|-----------------------||

E|-----------------------------------------|-----------||
H|-----------------------------------------|-----2-----||
G|-----------------------------------------|--6--2--4--||
D|-----------------------------------------|--6--2--4--||
A|--4--2-----2-----------------2-----------|--4--0--2--||
E|--------4-----4--0--0--2--4-----4--2--0--|-----------||


        refren

E|--------------|--------------|--------------|-------------|
H|-----2--------|-----2--------|-----2--------|-----2-------|
G|--6--2--1--4--|--6--2--1--4--|--6--2--1--4--|--6--2--4-4--|
D|--6--2--2--4--|--6--2--2--4--|--6--2--2--4--|--6--2--4-4--|
A|--4--0--2--2--|--4--0--2--2--|--4--0--2--2--|--4--0--2-2--|
E|--------0-----|--------0-----|--------0-----|-------------|



        3 zwrotka (taka sama jak 2)



        refren



        riff po refrenie

E|-----------------|-------------------|
H|-----------------|-------------------|
G|-----------------|--------------9-9--|
D|-----------------|--------------9-9--|     x8
A|--4--------------|--4-----------7-7--|
E|-----0--2--4--2--|-----0--2--4-------|

E|----------------------------------------|
H|----------------------------------------|
G|------14--------16--------18--------21--|
D|--12--------14--------16--------18------|    x2
A|----------------------------------------|
E|----------------------------------------|



        refren końcowy
          (clean lub chorus)

E|--5--6--8--8---8--8--8-----5--6----------------|--5--6--8--8--8--8--8-----5--6--8--8---||
H|--5--6--8--8---8--8--8-----5--6-----8----------|--5--6--8--8--8--8--8-----5--6--8--8---||
G|--7--7--10-10--9--10-9-----7--7-------10----9--|--7--7--10-10-9--10-9-----7--7--9--9---||
D|--7--8--10-10--10-10-10----7--8--10------10----|--7--8--10-10-10-10-10----7--8--10-10--||   x2
A|--5--8---------------------5--8----------------|--5--8--------------------5--8--10-10--||
E|-----6------------------------6----------------|-----6-----------------------6--8--8---||


E|--5--6--8--8--8--8--8-----5--6----------------|--5--6--8--8--8--8--8---||
H|--5--6--8--8--8--8--8-----5--6-----8----------|--5--6--8--8--8--8--8---||
G|--7--7--10-10-9--10-9-----7--7-------10----9--|--7--7--10-10-9--10-9---||
D|--7--8--10-10-10-10-10----7--8--10------10----|--7--8--10-10-10-10-10--||
A|--5--8--------------------5--8----------------|--5--8------------------||
E|-----6-----------------------6----------------|-----6------------------||


    zakończenie
      (overdrive lub distortion)

E|-----------|-----------|---------|-----------|------------7--||
H|-----------|-----------|---------|-----------|------------7--||
G|--7--/9-9--|--7--/9-9--|--7--/9--|--7--/9-9--|--7--/9-9-9-9--||
D|--7--/9-9--|--7--/9-9--|--7--/9--|--7--/9-9--|--7--/9-9-9-9--||
A|--5--/7-7--|--5--/7-7--|--5--/7--|--5--/7-7--|--5--/7-7-7-7--||
E|-----------|-----------|---------|-----------|---------------||



              Koniec

Dodaj komentarz ...i/lub link do filmiku video

Zaloguj się do serwisu
Wszelkie materiały i wypowiedzi zamieszczone na www.chords.pl są własnością ich autorów.