Zacznij systematycznie uczyć się grać na gitarze razem ze stroną Moja nauka - będziesz miał/miała do niej dostęp po zalogowaniu się w serwisie

Przechyłu - Szanty

Dodał -a: zuzia1995,
Redaktor: Tomek Pietrzkowski,
Data publikacji: 2008-05-28 00:01
 
Moja nauka


Ups, problem :-/
Zaloguj się Mój śpiewnik
E-|---------------------------------------------------------------------------|
B-|---------------------------------------------------------------------------|
G-|---------------------------------------------------------------------------|
D-|----0--2---2--0--2--4--0--2----------0--2--2--0--2--4---0--2---------------|
A-|-2---------------------------2----2----------------------------------------|
E-|---------------------------------------------------------------------------|


E-|---------------------------------------------------------------------------|
B-|----------0----------------------------------------------------------------|
G-|----0--2-----2--0-----------0-----0--------0------0------------------------|
D-|-2-----------------2--0--2-----------4-------4-------4--2------------------|
A-|----------------------------------------3-------2--------------------------|
E-|---------------------------------------------------------------------------|


ref

E-|---------------------------------------------------------------------------|
B-|------------0----------------------------------0---------------------------|
G-|-----0--2------2--0-----------0----------0--2-----2--0---------------------|
D-|--2------------------2--0--2-----------2----------------2--0--2------------|
A-|---------------------------------------------------------------------------|
E-|---------------------------------------------------------------------------|


E-|---------------------------------------------------------------------------|
B-|----------0----------------------------------------------------------------|
G-|----0--2-----2--0-----------0----0-------0--------0------------------------|
D-|-2-----------------2--0--2----------4-------4--------4---2-----------------|
A-|---------------------------------------3-------2---------------------------|
E-|---------------------------------------------------------------------------|
Dodał: Bronek777, 2014-08-21 23:51
Opracowania video z komentarzy

Dodaj komentarz ...i/lub link do filmiku video

Zaloguj się do serwisu
Wszelkie materiały i wypowiedzi zamieszczone na www.chords.pl są własnością ich autorów.