Zacznij systematycznie uczyć się grać na gitarze razem ze stroną Moja nauka - będziesz miał/miała do niej dostęp po zalogowaniu się w serwisie

A ja nie chcę czekolady (tab) - Piosenki Biesiadne

Dodał -a: MrgaretCullen,
Redaktor: SEBEK1304,
Data publikacji: 2011-03-12 17:56
 
Moja nauka


Ups, problem :-/
Zaloguj się Mój śpiewnik


e--0-0-0-3-3-----0-0----0-0-0-3-3---------------1-1-------------------1-1----------
h------------1-1------------------1-1-3---3-3-3-----0-0-3-3-----3-3-3-----0-0-1----
g----------------------------------------------------------------------------------
d----------------------------------------------------------------------------------
a----------------------------------------------------------------------------------
e----------------------------------------------------------------------------------

e--0-0-0-3-3-----0-0----0-0-0-3-3---------------1-1--------------3-3-3-3-1-0-------
h------------1-1------------------1-1-3---3-3-3-----0-0-3-3------------------3-1---
g----------------------------------------------------------------------------------
d----------------------------------------------------------------------------------
a----------------------------------------------------------------------------------
e----------------------------------------------------------------------------------

e--3-5-3-0-3-5-3-0-3-5-3-0-3-2-1-----1-3-1---1-3-1---3-3-3-3-1-0--------
h------------------------------------------3-------3-------------3-1----
g-----------------------------------------------------------------------
d-----------------------------------------------------------------------
a-----------------------------------------------------------------------
e-----------------------------------------------------------------------

Dodaj komentarz ...i/lub link do filmiku video

Zaloguj się do serwisu
Ostatnie komentarze
1.
mapa999
2013-01-30 17:26
Jaki jest tekst.
2.
aniadoda5
2013-01-28 17:22
Bardzo fajne
Wszelkie materiały i wypowiedzi zamieszczone na www.chords.pl są własnością ich autorów.