Zacznij systematycznie uczyć się grać na gitarze razem ze stroną Moja nauka - będziesz miał/miała do niej dostęp po zalogowaniu się w serwisie

Zabierz Mnie - Jan Bo

Opracował -a: LucasG,
Dodał -a: LucasG,
Redaktor: Tomek Pietrzkowski,
Pochodzi z: http://www.chords.pl
Data publikacji: 2009-08-18 00:10, Poprawiono 2009-08-23 20:31
 
Moja nauka


Ups, problem :-/
Zaloguj się Mój śpiewnik
h - hummer on
p - pull of
s - slide
! - flażolet                                    Zwrotka: C B G a F G a2
                                                         C B G a F G
WSTĘP:                                          
                                                Refren:  F G a
E|----------------------|                                F G  
H|-1--1--1-----ILOŚĆ----|
G|-2--3--2-----UDERZEŃ--|
D|-3--3--3-----ZE-------|
A|-3--3--3-----SŁUCHU---|
E|----------------------|

I ZWROTKA:

       C              B           G         a                  F         G           a2
E|-----------------------------------------------------------------------------3------------|
H|-----8--------------6-6---------3----------------------------1---------------3-----0------|
G|-2s9-9--9h10p9------7-7---------4-4-5-4---------5-5h7p5------2-0h2p0-------4-------2------|
D|-----10--------10---8-----------5-------5---5-7---------7-5--3-------3---5---------2------|
A|-----10-------------8-----------5---------5------------------3---------5-----------0------|
E|------------------------------------------------------------------------------------------|

       C              B           G         a                  F         G    
E|-----------------------------------------------------------------------------3------------|
H|-----8--------------6-----------3----------------------------1---------------3------------|
G|-----9--9h10p9------7-7h8p7-----4-4h5p4-4-------5-5h7p5------2-0h2p0-------4--------------|
D|-----10--------10---8-------8---5-----------5-7---------7-5--3-------3---5----------------|
A|-----10-------------8-----------5---------5------------------3---------5------------------|
E|------------------------------------------------------------------------------------------|


E|------------------------------------------------------------------------------------------|
H|------------------------------------------------------------------------------------------|
G|-------------7---------------7-7----------------------------------------------------------|
D|-------------7-5h7-7---------7---5h7-7----------------------------------------------------|
A|-----------3-5-------------3-5------------------------------------------------------------|
E|-----5-3-5-----------5-3-5----------------------------------------------------------------|

       C              B           G         a                  F         G       a2
E|-----------------------------------------------------------------------------3------------|
H|-----8--8h10p8------6-6h8p6-----3----------------------------1---------------3-0----------|
G|-----9--------------7-----------4-4h5p4---------5-5h7p5------2-0h2p0-------4---2----------|
D|-----10-------------8-----------5-------5---5-7---------7-5--3-------3---5-----2--x-x-x-x-|
A|-----10-------------8-----------5---------5------------------3---------5-------0--x-x-x-x-|
E|----------------------------------------------------------------------------------x-x-x-x-|

       C              B           G         a                  F         G
E|------------------------------------------------------------------------------------------|
H|-----8--------------6-----------3----------------------------1---------------3------------|
G|-----9--9h10p9------7-7h8p7-----4-4h5p4---------5-5h7p5------2-0h2p0-------4--------------|
D|-----10--------10---8-------8---5-------5---5-7---------7-5--3-------3---5----------------|
A|-----10-------------8-----------5---------5------------------3---------5------------------|
E|------------------------------------------------------------------------------------------|


E|------------------------------------------------------------------------------------------|
H|------------------------------------------------------------------------------------------|
G|-------------7-7---------------7-7---------------7-7---------------7-7--------------------|
D|-------------7---5h7-7---------7---5h7-7---------7---5h7-7---------7---5h7-7--------------|
A|-----------3-5---------------3-5---------------3-5---------------3-5----------------------|
E|-----5-3-5-------------5-3-5-------------5-3-5-------------5-3-5--------------------------|


I REFREN:

       F          G        a                   F          G
E|------------------3---------------------------------------3-------------------------------|
H|-------1--------3---3----1-0h1-1 --------------1--------3-3-------------------------------|
G|---------0------0--------2-----------------------0------0-0-------------------------------|
D|-----3-----3----0--------2--------------2----3-----3----0-0-------------------------------|
A|----------------------------------0-2-3---------------------------------------------------|
E|------------------------------------------------------------------------------------------|
 
D|------------------------------------------------------------------------------------------|
A|----12-12-12-12-------10-------5-5-5-5-----3----------------------------------------------|
E|----------------12-12----12------------5-5---5--------------------------------------------|
    
       F          G        a                   F          G
E|------------------3---------------------------------------3-------------------------------|
H|-------1--------3---3----1-0h1-1 --------------1--------3-3-------------------------------|
G|---------0------0--------2-----------------------0------0-0-------------------------------|
D|-----3-----3----0--------2--------------2----3-----3----0-0-------------------------------|
A|----------------------------------0-2-3---------------------------------------------------|
E|------------------------------------------------------------------------------------------|

G|-------------7------------7------------7------------7-------------------------------------|
D|-------------7-5h7--------7-5h7--------7-5h7--------7-------------------------------------|
A|-----------3-5----------3-5----------3-5----------3-5-------------------------------------|
E|-----5-3-5--------5-3-5--------5-3-5--------5-3-5-----------------------------------------|


II ZWROTKA:

       C             B           G         a                 F          G        a2
E|----------------------------------------------------------------------------3-------------|
H|-----8-------------6-----------3---------------------------1----------------3--0----------|
G|-----9--9h10p9-----7-7h8p7-----4-4h5p4---------5-5h7p5-----2--0h2-0-------4----2----------|
D|-----10--------10--8-------8---5-------5---5-7---------7-5-3--------3---5------2--x-x-x---|
A|-----10------------8-----------5---------5-----------------3----------5--------0--x-x-x---|
E|----------------------------------------------------------------------------------x-x-X---|

       C             B           G         a                 F          G        a2
E|------------------------------------------------------------------------------------------|
H|-----8--8h10p8-----6-6---------3---------------------------1---------------3---0----------|
G|-----9-------------7-7h8p7-----4-4h5p4---------5-5h7p5-----2--0h2-0-------4----2----------|
D|-----10------------8-----------5-------5---5-7---------7-5-3--------3---5------2----------|
A|-----10------------8-----------5---------5-----------------3----------5--------0----------|
E|------------------------------------------------------------------------------------------|


E|------------------------------------------------------------------------------------------|
H|------------------------------------------------------------------------------------------|
G|--------------------7!--------------------------------------------------------------------|
D|-----9-9-7-7------7!----------------------------------------------------------------------|
A|-------------7----------------------------------------------------------------------------|
E|---------------5--------------------------------------------------------------------------|
  
       C             B           G         a                 F          G            
E|----------------------------------------------------------------------------3-------------|
H|-----8-------------6-----------3---------------------------1----------------3-------------|
G|-----9--9h10p9-----7-7h8p7-----4-4h5p4---------5-5h7-5-----2--0h2-0-------4---------------|
D|-----10--------10--8-------8---5-------5---5-7---------7-5-3--------3---5-----------------|
A|-----10------------8-----------5---------5-----------------3----------5-------------------|
E|------------------------------------------------------------------------------------------|


E|------------------------------------------------------------------------------------------|
H|------------------------------------------------------------------------------------------|
G|-------------7-7---------------7-7---------------7-7---------------7----------------------|
D|-------------7---5h7-7---------7---5h7-7---------7---5h7-7---------7-7-7-5h7-7------------|
A|-----------3-5---------------3-5---------------3-5---------------3-5----------------------|
E|-----5-3-5-------------5-3-5-------------5-3-5-------------5-3-5--------------------------|


II REFREN:
   
       F          G        a                   F          G
E|------------------3---------------------------------------3-------------------------------|
H|-------1--------3---3----1-0h1-1 --------------1--------3-3-------------------------------|
G|---------0------0--------2-----------------------0------0-0-------------------------------|
D|-----3-----3----0--------2--------------2----3-----3----0-0-------------------------------|
A|----------------------------------0-2-3---------------------------------------------------|
E|------------------------------------------------------------------------------------------|
 
D|------------------------------------------------------------------------------------------|
A|-----12-12-12-12-------10-------5-5-5-5-----3---------------------------------------------|
E|-----------------12-12----12------------5-5---5-------------------------------------------|
    
       F          G        a                   F          G
E|------------------3---------------------------------------3-------------------------------|
H|-------1--------3---3----1-0h1-1 --------------1--------3-3-------------------------------|
G|---------0------0--------2-----------------------0------0-0-------------------------------|
D|-----3-----3----0--------2--------------2----3-----3----0-0-------------------------------|
A|----------------------------------0-2-3---------------------------------------------------|
E|------------------------------------------------------------------------------------------|

G|-------------7------------7------------7------------7-------------------------------------|
D|-------------7-5h7--------7-5h7--------7-5h7--------7-------------------------------------|
A|-----------3-5----------3-5----------3-5----------3-5-------------------------------------|
E|-----5-3-5--------5-3-5--------5-3-5--------5-3-5-----------------------------------------|


SOLO - Nie potrafiłem się połapać, więc podałem sekcję basową:

   
G|------------------------------------------------------------------------------------------|
D|------------------------------------------------------------------------------------------|
A|--3---3p1-1-1-------------------------------------------2---------------------------------|
E|----------------3---3h5-5-5---3-1---1h3-3---5-5---5-3-5-----------------------------------|

G|------------------------------------------------------------------------------------------|
D|------------------------------------------------------------------------------------------|
A|--3---3p1-1-1-------------------------------------3-5---------3-5-------------------------|
E|----------------3---3h5-5-5---3-1---1h3-3---5-3-5-------5-3-5-----------------------------|

G|------------------------------------------------------------------------------------------|
D|------------------------------------------------------------------------------------------|
A|--3---3p1-1-1-------------------------------------------2---------------------------------|
E|----------------3---3h5-5-5---3-1---1h3-3---5-5---5-3-5-----------------------------------|

G|------------------------------------------------------------------------------------------|
D|------------------------------------------------------------------------------------------|
A|--3---3p1-1-1-------------------------------------3-5--------3-5--------3-5--------3-5----|
E|----------------3---3h5-5-5---3-1---1h3-3---5-3-5------5-3-5------5-3-5------5-3-5--------|


III REFREN:

       F          G        a                   F          G
E|------------------3---------------------------------------3-------------------------------|
H|-------1--------3---3----1-0h1-1 --------------1--------3-3-------------------------------|
G|---------0------0--------2-----------------------0------0-0-------------------------------|
D|-----3-----3----0--------2--------------2----3-----3----0-0-------------------------------|
A|----------------------------------0-2-3---------------------------------------------------|
E|------------------------------------------------------------------------------------------|
 
D|------------------------------------------------------------------------------------------|
A|12-12-12-12-------10-----6-5-3---5-3------------------------------------------------------|
E|------------12-12----12--------5-----5-3--------------------------------------------------|
    
       F          G        a                   F          G
E|------------------3---------------------------------------3-------------------------------|
H|-------1--------3---3----1-0h1-1 --------------1--------3-3-------------------------------|
G|---------0------0--------2-----------------------0------0-0-------------------------------|
D|-----3-----3----0--------2--------------2----3-----3----0-0-------------------------------|
A|----------------------------------0-2-3---------------------------------------------------|
E|------------------------------------------------------------------------------------------|

H|------------------------------------------------------------------------------------------|
D|----------7------------7------------7------------7----------------------------------------|
G|----------7-5h7--------7-5h7--------7-5h7--------7----------------------------------------|
A|--------3-5----------3-5----------3-5----------3-5----------------------------------------|
E|--5-3-5--------5-3-5--------5-3-5--------5-3-5--------------------------------------------|
Dodał: LucasG, 2009-08-18 00:10
Opracowania video z komentarzy

Dodaj komentarz ...i/lub link do filmiku video

Zaloguj się do serwisu
Ostatnie komentarze
1.
Jaskier94
2011-05-18 21:37
Ja też poproszę na maila, kupemony@op.pl i z góry dzięki.
2.
petlica
2009-08-23 19:58
Myślę że z tego co tu kolega przedstawił da sie zagrac ta piosenkę
3.
righteourskill
2009-08-21 20:56
Ja bym poprosiła o całe opracowanie. righteourskill@wp.pl
4.
LucasG
2009-08-21 11:43
Dzięki, jedno jest pewne, brzmi dużo lepiej. Chyba będę się musiał odzwyczaić swojego sposobu grania tego momentu. Dzięki Tomku za doprowadzenie sprawy tego opracowania do końca. Pozdro
5.
petlica
2009-08-21 10:04
Bardzo fajne opracowanie, ale tak sobie myslę że zagrywkę przed refrenem łatwiej byłoby zagrać w ten sposób. E|----------------------| H|-------------3--3-----| D|--2----------2--0h2---| G|--2-----2----0--0-----| A|--0-----0--3----------| E|----3b4---------------| Pozdrawiam
6.
Tomek Pietrzkowski
2009-08-20 23:32
LucasG, wgrałem Twoją wersję z pliku, który mi przysłałeś. Wiem też z czego wynikał problem ze zgłoszeniem.
7.
LucasG
2009-08-20 14:07
Przepraszam, ale "problemy techniczne" uniemożliwiają wrzucenie całości. Bo opracowałem cały numer. Gdyby ktoś potrzebował, to proszę zgłosić się na maila :)
8.
Paweł B.
2009-08-18 12:48
elegancko... dzięki
Wszelkie materiały i wypowiedzi zamieszczone na www.chords.pl są własnością ich autorów.