Zacznij systematycznie uczyć się grać na gitarze razem ze stroną Moja nauka - będziesz miał/miała do niej dostęp po zalogowaniu się w serwisie

Wojna w mieście - Jan Bo

Opracował -a: rodzina123,
Redaktor: Miłosz,
Data publikacji: 2006-01-23 00:10
 
Moja nauka


Ups, problem :-/
Zaloguj się Mój śpiewnik
                   Jan  Bo „  Wojna  w  mieście  „
intro

e-------------------------0------0------0---  --3b—-p0-----0------0-------0--
h-------------3---3------------------3-------  ---------3--------------3-----
g-0-H2-H4------------4-----------------------  ------------------------------
d--------------------------------------------  ------------------------------
a--------------------------------------------  ------------------------------
e------- ----x-------x-------x-------x-----  ----x-------x-------x------x----

e----3--p0------0-------0-------0--  ---------------------------------
h------------3--------------3------  ---------------------------------
g----------------------------------  4-H2-p0--------------------------
d----------------------------------  ----------2------2---------------
a----------------------------------  ---------------------------------
e----x-------x-------x-------x-----  ------x-------x-------x-------x--
powt.

e--------------------  ------------------------  -------------------------
h--------------------  ------------------------  -------------------------
g--------------------  --444---444---444---444-  --4----------------------
d--------------------  --444---444---444---444-  --4----------------------
a--------------------  --222---222---222---222-  --2----------------5-H7--
e--------------------  --x-----x-----x-----x---  --x------x------x------x-

e--------------------------------------  ---------------------------
h----------------------------------5  ----------------------------
g-----------------------------------  ----------------------------
d------------5-------7-------5------  ----------5-----5H7p5-------pow (x3 )
a----7-7----------------------------  ------------------------H7--
e----x-------x-------x-------x------  --x-------x-------x-------x-

e-----------------------------------  ----------------------------
h----------------------------------5  ----------------------------
g-----------------------------------  ---“ W  moim … „------------
d------------5-------7-------5------  ----------------------------
a----7-7----------------------------  ----------------------------
e----x-------x-------x-------x------  --x-------x-------x-------x-

zwrotka   -  wchodzi   riff   j.w.    (  x  8  )

przejście  A  :  „  Szykują się jak  wściekłe psy ... „

e----x-------x-------x-------x---  --x-------x-------x-------x--
h--------------------------------  -----------------------------
g--------------------------------  ------------------3---2---0--
d------------5-------7-------5---  --7-------5-------3---2---0--+ riff j.w.
a----7-------5-------7-------5---  --7-------5------------------  ( x 1 )
e------------3-------5-------3---  --5-------3------------------

powt  przejście  A  :  „  Do  walki z tobą ... „   +   riff  j.w.   (  x  1  )

przejście  B  :  „  Już  są  gotowi ... „

g---------0-------2------0---  ---2---------------------------
d---------0-------2------0---  ---2---------------------------
a—7-------x-------x------x---  ---x-------x-------x-------x---

powt. (  x 3  )  +  6  i  7  takt  intro

refren   -  riff   j.w.  (  ten  ze  zwrotki  )

Dodaj komentarz ...i/lub link do filmiku video

Zaloguj się do serwisu
Ostatnie komentarze
1.
rodzina123
2006-03-13 09:38
przed momentem nagrałem mp3 z intro do tej piosenki wg mego opracowania - mogę przesłac , jeśli ktos chce ...pozdrawiam!
Wszelkie materiały i wypowiedzi zamieszczone na www.chords.pl są własnością ich autorów.