Zacznij systematycznie uczyć się grać na gitarze razem ze stroną Moja nauka - będziesz miał/miała do niej dostęp po zalogowaniu się w serwisie

Hymn (tab) - Luxtorpeda

Opracował -a: petlica,
Dodał -a: petlica,
Redaktor: petlica,
Pochodzi z: http://www.chords.pl
Data publikacji: 2012-09-04 08:39
 
Moja nauka


Ups, problem :-/
Zaloguj się Mój śpiewnik
 Riff-A
   Guitar_1
D|--------------------------------------|--------------------------------------|
A|--------------------------------------|--------------------------------------|
F|--------------------------------------|--------------------------------------|
C|-10---------------7-10-7--------------|-10---------------7-10-7--------------|
G|--x----------7-10----------------10---|--x----------7-10----------------10---|
D|--8-----------------------------------|--8-----------------------------------|
 |                                      |                                      |
 | Guitar_2                             |                                      |
D|--------------------------------------|--------------------------------------|
A|--------------------------------------|--------------------------------------|
F|--5----/--------------2----/----------|--5----/--------------2----/----------|
C|--5---/---------------2---/-------5---|--5---/---------------2---/-------5---|
G|--3--/------------0-3-0--/--------5---|--3--/------------0-3-0--/--------5---|
D|--------------0-3-----------------3---|--------------0-3-----------------3---|



 Riff-B
   Guitar_1
D|--------------------------------------|---------------------------------|
A|-----8b10-8--8b10-8-----8b10-8-8b10-8-|---------------------------------|
F|--------------------------------------|---------------------------------|
C|-10------------------7----------------|-7----/------/--5-7----/-----/---|
G|--8------------------5----------------|-7---/------/---5-7---/-----/----|
D|--------------------------------------|-5--/------/----3-5--/-----/-----|
 |                                      |                                 |
 | Guitar_2                             |                                 |
D|--------------------------------------|---------------------------------|
A|--------------------------------------|---------------------------------|
F|-10----/----/-----12--7----/----/-----|---------------------------------|
C|-10---/----/------12--7---/----/----5-|-7----/-----/---5-7----/-----/---|
G|--8--/----/-------10--5--/----/-----5-|-7---/-----/----5-7---/-----/----|
D|------------------------------------3-|-5--/-----/-----3-5--/-----/-----|


pozdr
petlica

Dodaj komentarz ...i/lub link do filmiku video

Zaloguj się do serwisu
Wszelkie materiały i wypowiedzi zamieszczone na www.chords.pl są własnością ich autorów.