Zacznij systematycznie uczyć się grać na gitarze razem ze stroną Moja nauka - będziesz miał/miała do niej dostęp po zalogowaniu się w serwisie

Achtung 2012 - Farben Lehre

Opracował -a: Wilku,
Dodał -a: Wilku,
Redaktor: Seba,
Pochodzi z: http://www.chords.pl/
Data publikacji: 2014-03-01 07:11
 
Moja nauka


Ups, problem :-/
Zaloguj się Mój śpiewnik
Intro:

E|--------------------------------------------------------------------------------------------
B|--------------------------------------------------------------------------------------------
G|--------------------------------------------------------------------------------------------
D|-5-5-5/8-8--3-3-3/5-5---5-5-5/8-8--12-12-12/5-5---------------------------------------------
A|-5-5-5/8-8--3-3-3/5-5---5-5-5/8-8--12-12-12/5-5---------------------------------------------
E|-3-3-3/6-6--1-1-1/3-3---3-3-3/6-6--10-10-10-3-3---------------------------------------------

Intro gramy raz. Po nim gramy poniższą sekwencję bez przerw między riffami.

E|--------------------------------------------------------------------------------------------
B|--------------------------------------------------------------------------------------------
G|--------------------------------------------------------------------------------------------
D|-5-5-5/8-8-8-8-8-8-8-8\3-3-3/5-5-5-5-5-5-5-5------------------------------------------------
A|-5-5-5/8-8-8-8-8-8-8-8\3-3-3/5-5-5-5-5-5-5-5------------------------------------------------
E|-3-3-3/6-6-6-6-6-6-6-6\1-1-1/3-3-3-3-3-3-3-3------------------------------------------------


E|---------------------------------------------------------------------------------------------
B|---------------------------------------------------------------------------------------------
G|---------------------------------------------------------------------------------------------
D|-5-5-5/8-8-8-8-8-8-8-8\12-12-12/5-5-5-5-5-5-5-5----------------------------------------------
A|-5-5-5/8-8-8-8-8-8-8-8\12-12-12/5-5-5-5-5-5-5-5----------------------------------------------
E|-3-3-3/6-6-6-6-6-6-6-6\10-10-10/3-3-3-3-3-3-3-3----------------------------------------------

Życzę miłej gry ;)
Dodał: Wilku, 2014-03-01 07:13
Opracowania video z komentarzy

Dodaj komentarz ...i/lub link do filmiku video

Zaloguj się do serwisu
Ostatnie komentarze
1.
rudmila83
2014-03-21 01:22
twardo walczę :D
2.
Wilku
2014-03-01 20:22
Wybaczcie zapomniałem dodać znak slide'u między 10 a 3 progiem w pierwszym zapisie.
Wszelkie materiały i wypowiedzi zamieszczone na www.chords.pl są własnością ich autorów.