Zacznij systematycznie uczyć się grać na gitarze razem ze stroną Moja nauka - będziesz miał/miała do niej dostęp po zalogowaniu się w serwisie

Kwiaty Świata - Farben Lehre

Opracował -a: biskup,
Pochodzi z: http://www.chords.pl
Data publikacji: 2005-02-15 09:50
 
Moja nauka


Ups, problem :-/
Zaloguj się Mój śpiewnik
wstęp 4x:
|-----------|
|-----------|
|-7--5-4-5--|
|-7--5-4-5--|
|-5--3-2-3--|
|-----------|

między zwrotkami (4x):
|--------------------------------------|
|--------------------------------------|
|--------------------------------------|
|-------------5-5----------------------|
|-7-7-7-7-7-7-5-5-5-5-5-5-5-5-5-5------|
|-7-7-7-7-7-7-3-3-5-5-5-5-5-5-5-5------|
|-5-5-5-5-5-5-----3-3-3-3-3-3-3-3------|

zwrotka (bicie reggae) cz.1:
|--------------------------------------|
|--------------------------------------|
|--------------------------------------|
|-7-7-7-7-5-5-5-5--7-7-7-7--5-5-5-5----|
|-7-7-7-7-5-5-5-5--7-7-7-7--5-5-5-5----|
|-5-5-5-5-3-3-3-3--5-5-5-5--3-3-3-3----|

zwrotka (bicie reggae) cz.2:
|--------------------------------------|
|--------------------------------------|
|-7-7-5-5-7-7-5-5----------------------|
|-7-7-5-5-7-7-5-5-7-7-7-7-5-5-5-5------|
|-5-5-3-3-5-5-3-3-7-7-7-7-5-5-5-5------|
|-----------------5-5-5-5-3-3-3-3------|

refren:
|--------------------------------------|
|--------------------------------------|
|-7-5--7-5--7-5--7-5-------------------|
|-7-5--7-5--7-5--7-5-------------------|
|-5-3--5-3--5-3--5-3-------------------|
|--------------------------------------|

wstawka po 2 zwrotce (4x):
|-----------------|
|-----------------|
|-------------5-5-|
|-7-7-7-7-7-7-5-5-|
|-7-7-7-7-7-7-3-3-|
|-5-5-5-5-5-5-----|


między zwrotkami: a/C G

[zwrotka]
a
W słońcu...
G
Oczy...
a
Niebo...
G
Budowle...
D               C
W słońcu...
D                    C
Uśmiechy...
a
Białe...
G
Wszystkie...

[refren]
D                C
WSZYSTKIE...

Dodaj komentarz ...i/lub link do filmiku video

Zaloguj się do serwisu
Wszelkie materiały i wypowiedzi zamieszczone na www.chords.pl są własnością ich autorów.