Zacznij systematycznie uczyć się grać na gitarze razem ze stroną Moja nauka - będziesz miał/miała do niej dostęp po zalogowaniu się w serwisie

Atomowe zabawki - Farben Lehre

Opracował -a: sylwekzhp,
Redaktor: Tomek Pietrzkowski,
Pochodzi z: http://www.farbenlehre.plocman.pl
Data publikacji: 2007-05-31 00:32
 
Moja nauka


Ups, problem :-/
Zaloguj się Mój śpiewnik
Intro
1.           2.
-----------||---------------
-----------||---------------
-----------||-7---7-9-12-11-
-9-99-99-7-||-7---7-9-12-11-
-9-99-99-7-||-5---5-7-10-9--
-7-77-77-5-||---------------
 m mm mm m

Pierwsza część 4 razy, potem druga część 1 raz

Główny Riff
1.                                      2.
--------------------------------------||---------------------------------------
--------------------------------------||---------------------------------------
-------------------7--7-7--7----------||-------------------7--7-7--7-----------
-9--9-9--9-x-7x-7--7--7-7--7-(x-7x-7)-||-9--9-9--9-x-7x-7--7--7-7--7-xx-7-xx-7-
-9--9-9--9-x-7x-7--5--5-5--5-(x-7x-7)-||-9--9-9--9-x-7x-7--5--5-5--5-xx-7-xx-7-
-7--7-7--7-x-5x-5------------(x-5x-5)-||-7--7-7--7-x-5x-5------------xx-5-xx-5-

3.
---------------------------------------------
---------------------------------------------
-----------------------7--7-7--7-7-----------
-9--9-9--9-9-xx-7-xx-7-7--7-7--7-7-xx-7-xx-7-
-9--9-9--9-9-xx-7-xx-7-5--5-5--5-5-xx-7-xx-7-
-7--7-7--7-7-xx-5-xx-5-------------xx-5-xx-5-

Główny Riff grany jest wg schematu: 1,2,1,2,3,3,3,3

Zwrotka
-----------------------
-----------------------
-------7#----7---------
-9#----7#----7--7#---9-
-9#----5#----5--7#---7-
-7#-------------5#---7-

Refren
-------------------------------
-------------------------------
---------------------7--7-7--7-
-9--9-9--9-7--7-7--7-7--7-7--7-
-9--9-9--9-7--7-7--7-5--5-5--5-
-7--7-7--7-5--5-5--5-----------

Na zakończenie refrenu graj to (...Zawsze świeże, zawsze zdrowe...):
-----------
-----------
-7-9-7-6---
-7-9-7-6-7-
-5-7-5-4-7-
---------5-

Przejście
1.
-----------------------------
-----------------------------
-----------77777777777777777-
---9----9--77777777777777777-
-9----9----55555555555555555-
-----------------------------
           mmmmmmmmmmmmmmmmm
2.
------------------------0-0-0-
------------------------0-0-0-
------------------------0-0-0-
-9--9-9--9-x-7x-7-7-7-7-7-7-7-
-9--9-9--9-x-7x-7-5-5-5-5-5-5-
-7--7-7--7-x-5x-5-------------

3.
-0-0-0-
-0-0-0-
-0-0-0-
-7-7-7-
-5-5-5-
-------

Przejście wg schematu: 1,1,1,1,2,2,2,2,3

Dodaj komentarz ...i/lub link do filmiku video

Zaloguj się do serwisu
Wszelkie materiały i wypowiedzi zamieszczone na www.chords.pl są własnością ich autorów.