Zacznij systematycznie uczyć się grać na gitarze razem ze stroną Moja nauka - będziesz miał/miała do niej dostęp po zalogowaniu się w serwisie

Ulice milczą - Farben Lehre

Dodał -a: tomaszcool,
Redaktor: Tomek Pietrzkowski,
Data publikacji: 2007-05-09 00:09
 
Moja nauka


Ups, problem :-/
Zaloguj się Mój śpiewnik
Riff 1
------------
------------
-----5------
-7---5---5--
-7---3---5--
-5-------3--

Riff 2 (grany 2 razy po pierwszym refrenie, przed solówkš)
-------------------------------------------------
-------------------------------------------------
----------12-12-12-12-12-12-12-12-13\12-12-12-12-
-7---10---12-12-12-12-12-12-12-12-13\12-12-12-12-
-7---10---10-10-10-10-10-10-10-10-11\10-10-10-10-
-5---8-------------------------------------------

Riff 3
------------------------------------------------------
------------------------------------------------------
--------------5--5-5--7-7--------------7--5-5-5\4-4-4-
-7--7-7--7-7--5--5-5--7-7--5--5-5--5-5-7--5-5-5\4-4-4-
-7--7-7--7-7--3--3-3--5-5--5--5-5--5-5-5--3-3-3\2-2-2-
-5--5-5--5-5---------------3--3-3--3-3----------------

Schemat intro - Riff 1, Riff 2, 4x Riff 3

Zwrotka pt1
-------------------------------------------------------------------
-------------------------------------------------------------------
-----------------5-5-5-5-5-5-5-5\7---------------------------------
-7-7-7-7-7-7-7-7-5-5-5-5-5-5-5-5\7-5-5-5-5-5-5-5-5-5-5-5-5-5-5-2-5-
-7-7-7-7-7-7-7-7-3-3-3-3-3-3-3-3\5-5-5-5-5-5-5-5-5-5-5-5-5-5-5-2-5-
-5-5-5-5-5-5-5-5-------------------3-3-3-3-3-3-3-3-3-3-3-3-3-3-0-3-
 m m m m m m m m m m m m m m m     m m m m m m m m m m m m m m

Riff pomiędzy zwrotkami

x3
-----------          ---------------
-----------          ---------------
-------5---  póżniej ---------------
-7---7-5-7-          -7-7-7-7-7-7-7-
-7---7-3-7-          -7-7-7-7-7-7-7-
-5---5---5-          -5-5-5-5-5-5-5-
                      m m m m m m m

Zwrotka pt2
-----------------------------------------------------------------
-----------------------------------------------------------------
-----------------5-5-5-5-5-5-5-5---------------------------------
-7-7-7-7-7-7-7-7-5-5-5-5-5-5-5-5-5-5-5-5-5-5-5-5-5-5-5-5-5-5-2-5-
-7-7-7-7-7-7-7-7-3-3-3-3-3-3-3-3-5-5-5-5-5-5-5-5-5-5-5-5-5-5-2-5-
-5-5-5-5-5-5-5-5-----------------3-3-3-3-3-3-3-3-3-3-3-3-3-3-0-3-
 m m   m m m   m m m   m m m     m m   m m m   m m m   m m m

Refren
-----5--5-5------3--3-3-
-----5--5-5------3--3-3-
-----5--5-5------4--4-4-
-7---7--7-7--5---5--5-5-
-7---7--7-7--5---5--5-5-
-5---5--5-5--3---3--3-3-

Dodaj komentarz ...i/lub link do filmiku video

Zaloguj się do serwisu
Wszelkie materiały i wypowiedzi zamieszczone na www.chords.pl są własnością ich autorów.