Zacznij systematycznie uczyć się grać na gitarze razem ze stroną Moja nauka - będziesz miał/miała do niej dostęp po zalogowaniu się w serwisie

Handel - Farben Lehre

Opracował -a: biskup,
Pochodzi z: http://www.chords.pl
Data publikacji: 2005-02-15 09:49
 
Moja nauka


Ups, problem :-/
Zaloguj się Mój śpiewnik
intro:
|-------------------------------------|
|-------------------------------------|
|-2-2-2-2-2-2-3-3---2-2-2-2-2-2-7-7---|
|-2-2-2-2-2-2-3-3---2-2-2-2-2-2-7-7---|
|-0-0-0-0-0-0-1-1---0-0-0-0-0-0-5-5---|
|-------------------------------------|

zwrotka:
|-----------------------|
|-----------------------|
|-2----3-3---2----7-----|
|-2----3-3---2----7-----|
|-0----1-1---0----5-----|
|-----------------------|

refren:
|-----------------------------------------------------|
|-----------------------------------------------------|
|-2-2-2-2-2-2--5-5-5-5-5-5----------------------------|
|-2-2-2-2-2-2--5-5-5-5-5-5--5-5-5-5-5-5--2-2-2-2-2-2--|
|-0-0-0-0-0-0--3-3-3-3-3-3--5-5-5-5-5-5--2-2-2-2-2-2--|
|---------------------------3-3-3-3-3-3--0-0-0-0-0-0--|

Wstawka Po refrenie:
|------------------------------|
|------------------------------|
|-2-2-2-2--7-2-2-2-2--3----3---|
|-2-2-2-2--7-2-2-2-2--3--5-3---|
|-0-0-0-0--5-0-0-0-0--1--5-1---|
|------------------------3-----|

Dodaj komentarz ...i/lub link do filmiku video

Zaloguj się do serwisu
Ostatnie komentarze
1.
bemolwet1
2006-09-20 16:14
nie ma chwytów do tego utworu???
Wszelkie materiały i wypowiedzi zamieszczone na www.chords.pl są własnością ich autorów.