Zacznij systematycznie uczyć się grać na gitarze razem ze stroną Moja nauka - będziesz miał/miała do niej dostęp po zalogowaniu się w serwisie

Osobista - Farben Lehre

Dodał -a: shanar,
Redaktor: Tomek Pietrzkowski,
Pochodzi z: http://www.farbenlehre.plocman.pl
Data publikacji: 2007-09-27 00:02
 
Moja nauka


Ups, problem :-/
Zaloguj się Mój śpiewnik
tab by Michał
russel7@poczta.onet.pl

Intro
-------------------------------------------
-----8--8------6------8--8h9p8-----6-----5-
---7---------5------7------------5-----5---
-5---------3------5------------3-----3-----
-------------------------------------------
-------------------------------------------

Główny riff
--------------------------|--------------------------------
--------------------------|--------------------------------
---7h8p7---------10-9-----|---7h8p7---------10-9-----------
-5-------8-\10-8-------10-|-5-------8-\10-8-------10-10-10-
--------------------------|--------------------------------
--------------------------|--------------------------------

Zwrotka (to gra jedna z gitar)
--------------------------------------------|---------------------------------------
-8-88-8-88-8-88-8-8/11/8-6-66-6-66-6-8-88-8-|-8-88-8-88-8-88-8-8-8-88-8-88-8-88-8-8-
-7-77-7-77-7-77-7-7/10/7-5-55-5-55-5-7-77-7-|-7-77-7-77-7-77-7-7-7-77-7-77-7-77-7-7-
-5-55-5-55-5-55-5-5/8-/5-3-33-3-33-3-5-55-5-|-5-55-5-55-5-55-5-5-5-55-5-55-5-55-5-5-
--------------------------------------------|---------------------------------------
--------------------------------------------|---------------------------------------

Refren ( I gitara )
----------------------
----------------------
----------------------
-8---4---6---8--8-8-8-
-8---4---6---8--8-8-8-
-6---2---4---6--6-6-6-
                m m m

Refren ( II gitara )
---------8-------------------------8------------------
------11---11---------11--------11---11---------------
---10---------10---10--------10---------10--9-10-9-10-
-8---------------8---------8--------------------------
------------------------------------------------------
------------------------------------------------------

Solo
----------------------|----------------------------------------------------------|
-8--------------------|-----------------6------8---8---8---8-8-8-8-8-8-8-8-8-8-8-|
-7------(5)--(5)------|--3-------3---/5---5---7-----7---7---7-7-7-7-7-7-7-7-7-7--|
-5---(5)--------(5)---|----5-3h5-------------------------------------------------|
----------------------|----------------------------------------------------------|
----------------------|----------------------------------------------------------|

-------------------------------------------------------------------------------------------------|
----------------------------8-10-10~-8-10~-8-10~-8-10--10h11p10p8-10-10h11p10p8-10-10h11p10p8-10-|
---7h8p7---------10-9-----7----------------------------------------------------------------------|
-5-------8-\10-8-------10------------------------------------------------------------------------|
-------------------------------------------------------------------------------------------------|
-------------------------------------------------------------------------------------------------|

------------------6------------------------------------------------------
-8\---8-----8--------8-------------8-----------8-----------8-------------
----7---7-6---6-5------7-6---10-----7-6---1010---7-6---10-----7-6---1010-
-----------------------------8------------8-8----------8------------8-8--
-------------------------------------------------------------------------
-------------------------------------------------------------------------

Dodaj komentarz ...i/lub link do filmiku video

Zaloguj się do serwisu
Wszelkie materiały i wypowiedzi zamieszczone na www.chords.pl są własnością ich autorów.