Zacznij systematycznie uczyć się grać na gitarze razem ze stroną Moja nauka - będziesz miał/miała do niej dostęp po zalogowaniu się w serwisie

Egoiści - Farben Lehre

Dodał -a: tomi,
Redaktor: Tomek Pietrzkowski,
Pochodzi z: http://www.chords.pl
Data publikacji: 2006-01-27 12:00
 
Moja nauka


Ups, problem :-/
Zaloguj się Mój śpiewnik
E--0--7--8--10--0--7--8--10--0--7--8--10--0--7--8--10
B----------------------------------------------------
G----------------------------------------------------
D----------------------------------------------------
A----------------------------------------------------
E----------------------------------------------------




E--0--0--3--2--------0--0----------2------------2--3--2
B--------------3--3----------0--3-------0--1-------------3--
G----------------------------------------------------
D----------------------------------------------------
A----------------------------------------------------
E----------------------------------------------------




E--0--0--3--2----------0--0------------3--2----------
B--------------3--3------------0--1------------------
G----------------------------------------------------
D----------------------------------------------------
A----------------------------------------------------
E----------------------------------------------------





E----------------------------------------------------
B--0--0-------1--0--0--0--0--0-------1--0--0--0--0--0--0--0--0--1--1--1--1--1
G----------2--------------------2---------------------------------------------
D----------------------------------------------------
A----------------------------------------------------
E----------------------------------------------------

Dodaj komentarz ...i/lub link do filmiku video

Zaloguj się do serwisu
Ostatnie komentarze
1.
blancik5
2006-05-08 13:11
ale na poczatku nie jest 2 razy pusta e tylko 3razy
2.
tomi
2006-03-10 13:17
ty chamie!!!!! to moje opracowanie ja to wymyśliłam a nie ty!!! ty nawet na gitarze grać nie umiesz... :((
3.
pirat21wieka
2006-01-27 14:03
chwyty by się przydały. zwrotka: e e h C refren: e C e C
Wszelkie materiały i wypowiedzi zamieszczone na www.chords.pl są własnością ich autorów.