Zacznij systematycznie uczyć się grać na gitarze razem ze stroną Moja nauka - będziesz miał/miała do niej dostęp po zalogowaniu się w serwisie

Futbolówka - Farben Lehre

Opracowali: michicybo, Seba,
Dodali: michicybo, Seba,
Redaktor: Seba,
Pochodzi z: http://www.chords.pl/
Data publikacji: 2016-05-02 13:49, Poprawiono 2016-05-16 14:27
 
Moja nauka


Ups, problem :-/
Zaloguj się Mój śpiewnik
Wstęp solo:

E1|-------------------------------------------
H|--------------------------------------------
G|--------------------------------------------
D|---------------------2-------------2--------
A|--0-2-4--4-2--0-2-4----4--0-2-4--4---4-2----
E6|----------------------------------------2--

E1|---------------------------------------------
H|----------------------------------------------
G|----------------------------------------------
D|---------------------2--------------2----2-4--
A|--0-2-4--4-2--0-2-4----4---0-2-4--4----4------
E6|---------------------------------------------

Wstęp:  fis  H  fis
        A  E  fis

Zwrotka:  fis  H  fis  H
          fis  H  A  H

Refren:  fis  H  fis
         A  E  fis
         fis  H  fis
         A  H  fis

Wstęp solo dodany przez użytkownika Seba
Dodał: michicybo, 2016-05-02 14:17
Opracowania video z komentarzy

Dodaj komentarz ...i/lub link do filmiku video

Zaloguj się do serwisu
Wszelkie materiały i wypowiedzi zamieszczone na www.chords.pl są własnością ich autorów.