Zacznij systematycznie uczyć się grać na gitarze razem ze stroną Moja nauka - będziesz miał/miała do niej dostęp po zalogowaniu się w serwisie

Spodnie z GS-u - Farben Lehre

Opracował -a: biskup,
Pochodzi z: http://www.chords.pl
Data publikacji: 2005-02-15 09:54
 
Moja nauka


Ups, problem :-/
Zaloguj się Mój śpiewnik
intro (na pelnych akordach): A E fis D

wstawka miedzy zwrotkami:
|---------------------------------|
|---------------------------------|
|-2-2--2-------------------7-6-4--|
|-2-2--2--2-2-2-2--4-4--4--7-6-4--|
|-0-0--0--2-2-2-2--4-4--4--5-4-2--|
|---------0-0-0-0--2-2--2---------|

zwrotka:
|-------------------------------------|
|-------------------------------------|
|-2-2-2-2--------------------7-7-7-7--|
|-2-2-2-2--2-2-2-2--4-4-4-4--7-7-7-7--|
|-0-0-0-0--2-2-2-2--4-4-4-4--5-5-5-5--|
|----------0-0-0-0--2-2-2-2-----------|

refren:
|------------------------------------|
|------------------------------------|
|-4-4-4-4-7-7-7-7----------2-2-2-2- -|
|-4-4-4-4-7-7-7-7-5-5-5-5--2-2-2-2---|
|-2-2-2-2-5-5-5-5-5-5-5-5--0-0-0-0---|
|-----------------3-3-3-3------------|

[zwrotka]  A E fis D
[refren]   h D G A

Dodaj komentarz ...i/lub link do filmiku video

Zaloguj się do serwisu
Ostatnie komentarze
1.
matiiiii
2013-06-16 22:59
Ta najwyższa kreska oznacza najcieńszą strunę
2.
dezerterss20
2013-06-16 13:44
Przepraszam za głupie pytanie, ale dopiero zaczynam grać z tabulatury. Czy najwyższa kreska to najcięższa czy najgrubsza struna?
3.
g-j
2007-07-08 11:14
no jak to? o siódmy albo szósty;) a tak serio to te cyferki nie oznaczają palców tylko progi na ktorych daną strunę musisz przycisnąć
4.
Lookasz
2007-07-07 17:42
Jak mam 7 albo 6 to o ktory palec chodzi?
Wszelkie materiały i wypowiedzi zamieszczone na www.chords.pl są własnością ich autorów.