Zacznij systematycznie uczyć się grać na gitarze razem ze stroną Moja nauka - będziesz miał/miała do niej dostęp po zalogowaniu się w serwisie

Rozkołysanka - Farben Lehre

Opracował -a: Runner,
Pochodzi z: http://www.chords.pl
Data publikacji: 2005-09-21 00:10
 
Moja nauka


Ups, problem :-/
Zaloguj się Mój śpiewnik
Farben Lehre - Rozkołysanka

Intro
|--------------------------|\
|--------------------------| \
|--------------------------|  \ x8
|-----7-----10-----7-----5-|  /
|-(0)---(0)----(0)---(0)---| /
|--------------------------|/

|----------------------------------|
|----------------------------------|
|----------------------------------|
|-7-777-77-10-10-10-10-7-777-777-5-|
|----------------------------------|
|----------------------------------|

|------------------------------------|
|------------------------------------|
|------------------------------------|
|-55p777-777-10-10-10-10-7-777-777-5-|
|------------------------------------|
|------------------------------------|


Zwrotka
|-(5)-------------|\        |-(5)-----|
|-(5)-------------| \       |-(5)-----|
|--5--------------|  \ x3   |--5------| za 4. razem
|--7------9/ \----|  /      |--7------|
|--7-----------10-| /       |--7------|
|--5--------------|/        |--5------|

Refren
|-------5-5---3-3-3--3-|-------5-5---3-3-3--x-x-x-x-|\
|------5--5---3-3-3--3-|------5--5---3-3-3--x-x-x-x-| \
|-----5---5---4-4-4--4-|-----5---5---4-4-4--x-x-x-x-|  \ x3
|----7----7---5-5-5--5-|----7----7---5-5-5--x-x-x-x-|  /
|-7-7-----7---5-5-5--5-|-7-7-----7---5-5-5--x-x-x-x-| /
|-------------3-3-3--3-|-------------3-3-3--x-x-x-x-|/

|-------5-5---3-3-3--3-|-------5-5---3-3-3--x-x-x-x---5--|
|------5--5---3-3-3--3-|------5--5---3-3-3--x-x-x-x---5--|
|-----5---5---4-4-4--4-|-----5---5---4-4-4--x-x-x-x---5--| za 4. razem
|----7----7---5-5-5--5-|----7----7---5-5-5--x-x-x-x---7--|
|-7-7-----7---5-5-5--5-|-7-7-----7---5-5-5--x-x-x-x---7--|
|-------------3-3-3--3-|-------------3-3-3--x-x-x-x------|

Po refrenie
|--------------------------------------|\
|--------------------------------------| \
|--------------------------------------|  \ x4
|---7---7---10p11p12p11p10p7-10-7--7-5-|  /
|-0---0--------------------------------| /
|--------------------------------------|/

|---------------------------------------|\
|---------------------------------------| \
|---------------------------------------|  \ x3
|-5p7-7777-555-10p12-5p7-7777-555-----5-|  /
|---------------------------------5p7---| /
|---------------------------------------|/

|---------------------------------|
|---------------------------------|
|---------------------------------| za 4. razem
|-5p7-7777-555-10p12-5p7-7777-7-5-|
|---------------------------------|
|---------------------------------|

Zwrotka
|-(5)-------------|\        |-(5)-----|
|-(5)-------------| \       |-(5)-----|
|--5--------------|  \ x3   |--5------| za 4. razem
|--7------9/ \----|  /      |--7------|
|--7-----------10-| /       |--7------|
|--5--------------|/        |--5------|

Refren
|-------5-5---3-3-3--3-|-------5-5---3-3-3--x-x-x-x-|\
|------5--5---3-3-3--3-|------5--5---3-3-3--x-x-x-x-| \
|-----5---5---4-4-4--4-|-----5---5---4-4-4--x-x-x-x-|  \ x3
|----7----7---5-5-5--5-|----7----7---5-5-5--x-x-x-x-|  /
|-7-7-----7---5-5-5--5-|-7-7-----7---5-5-5--x-x-x-x-| /
|-------------3-3-3--3-|-------------3-3-3--x-x-x-x-|/

|-------5-5---3-3-3--3-|-------5-5---3-3-3--x-x-x-x---5--|
|------5--5---3-3-3--3-|------5--5---3-3-3--x-x-x-x---5--|
|-----5---5---4-4-4--4-|-----5---5---4-4-4--x-x-x-x---5--| za 4. razem
|----7----7---5-5-5--5-|----7----7---5-5-5--x-x-x-x---7--|
|-7-7-----7---5-5-5--5-|-7-7-----7---5-5-5--x-x-x-x---7--|
|-------------3-3-3--3-|-------------3-3-3--x-x-x-x------|

Solo
|------------------------------------------------|
|------------------------------------------------|
|------------------------------5p7-5---5---------|
|------------555---7~~~~-5p7-9-------9---9-5p7-7-|
|-5p7-7-7-55-----7-------------------------------|
|------------------------------------------------|

|---------------------------------------------|
|---------------------------------------------|
|---------------------------------------------|
|-9p10p9-5-7-9p10p9-5-7-9---9p10p9-5-7-5-9-10-|
|---------------------------------------------|
|---------------------------------------------|

|-----------------------------------------------|
|-----------------------------------------------|
|-----------------------------5p7-5---5---------|
|------------555-7-5----5p7-9-------9---9-5p7-7-|
|-5p7-7-7-55------------------------------------|
|-----------------------------------------------|

|---------------------------------------------------------|
|---------------------------------------------------------|
|---------------------------------------------------------|
|-9p10p9-5-7-9p10p9-5-7-9---10p12p10-10-9p10p9-5-7-5-9-10-|
|---------------------------------------------------------|
|---------------------------------------------------------|

|----------------------------------------------------|\
|----------------------------------------------------| \
|-12/ \-10p12p10-7-9---7p9p7----7--------------------|  \ x2
|----------------------------10---10-10p12p10-5-5-10-|  /
|----------------------------------------------------| /
|----------------------------------------------------|/

|---------------------------------|\
|---------------------------------| \
|-------7p9-9-12--7p9-5-6p7-------|  \ x2
|-5p7-7---------------------9-7p9-|  /
|---------------------------------| /
|---------------------------------|/

|-----------------------------------------------|
|-----------------------------------------------|
|-9-9-12-12-9-9-9-9-12-9-9-9-9-12-12-9-9-9-9-12-|
|-----------------------------------------------|
|-----------------------------------------------|
|-----------------------------------------------|

|--------------------------------------------|
|--------------------------------------------|
|-9-9-9-9-12-12-9-9-9-9-12---7p9-5-6p7-------|
|--------------------------------------9-5p9-|
|--------------------------------------------|
|--------------------------------------------|

|------------|
|------------|
|---5---6/ \-|
|-5---5------|
|------------|
|------------|

Po solówce
|---------------------------------------|\
|---------------------------------------| \
|---------------------------------------|  \ x3
|-5p7-7777-555-10p12-5p7-7777-555-----5-|  /
|---------------------------------5p7---| /
|---------------------------------------|/

|---------------------------------|
|---------------------------------|
|---------------------------------| za 4. razem
|-5p7-7777-555-10p12-5p7-7777-7-5-|
|---------------------------------|
|---------------------------------|

Zwrotka
|-(5)-------------|\        |-(5)-----|
|-(5)-------------| \       |-(5)-----|
|--5--------------|  \ x3   |--5------| za 4. razem
|--7------9/ \----|  /      |--7------|
|--7-----------10-| /       |--7------|
|--5--------------|/        |--5------|

Refren
|-------5-5---3-3-3--3-|-------5-5---3-3-3--x-x-x-x-|\
|------5--5---3-3-3--3-|------5--5---3-3-3--x-x-x-x-| \
|-----5---5---4-4-4--4-|-----5---5---4-4-4--x-x-x-x-|  \ x3
|----7----7---5-5-5--5-|----7----7---5-5-5--x-x-x-x-|  /
|-7-7-----7---5-5-5--5-|-7-7-----7---5-5-5--x-x-x-x-| /
|-------------3-3-3--3-|-------------3-3-3--x-x-x-x-|/

|-------5-5---3-3-3--3-|-------5-5---3-3-3--x-x-x-x---5--|
|------5--5---3-3-3--3-|------5--5---3-3-3--x-x-x-x---5--|
|-----5---5---4-4-4--4-|-----5---5---4-4-4--x-x-x-x---5--| za 4. razem
|----7----7---5-5-5--5-|----7----7---5-5-5--x-x-x-x---7--|
|-7-7-----7---5-5-5--5-|-7-7-----7---5-5-5--x-x-x-x---7--|
|-------------3-3-3--3-|-------------3-3-3--x-x-x-x------|

Outro
|-------5-5---3-3-3--3-|-------5-5---3-3-3--x-x-x-x-|\
|------5--5---3-3-3--3-|------5--5---3-3-3--x-x-x-x-| \
|-----5---5---4-4-4--4-|-----5---5---4-4-4--x-x-x-x-|  \ x4
|----7----7---5-5-5--5-|----7----7---5-5-5--x-x-x-x-|  /
|-7-7-----7---5-5-5--5-|-7-7-----7---5-5-5--x-x-x-x-| /
|-------------3-3-3--3-|-------------3-3-3--x-x-x-x-|/

|-5-5-5-|-------5-5---3-3-3--x-x-x-x-|\
|-5-5-5-|------5--5---3-3-3--x-x-x-x-| \
|-5-5-5-|-----5---5---4-4-4--x-x-x-x-|  \ x4
|-7-7-7-|----7----7---5-5-5--x-x-x-x-|  /
|-7-7-7-|-7-7-----7---5-5-5--x-x-x-x-| /
|-5-5-5-|-------------3-3-3--x-x-x-x-|/

|-55-5-55-5-55-|-------5-5---3-3-3--x-x-x-x-|\
|-55-5-55-5-55-|------5--5---3-3-3--x-x-x-x-| \
|-55-5-55-5-55-|-----5---5---4-4-4--x-x-x-x-|  \ x3
|-77-7-77-7-77-|----7----7---5-5-5--x-x-x-x-|  /
|-77-7-77-7-77-|-7-7-----7---5-5-5--x-x-x-x-| /
|-55-5-55-5-55-|-------------3-3-3--x-x-x-x-|/

|-55-5-55-5-55-|-------5-5---3-3-3--x-x-x-x---5--|
|-55-5-55-5-55-|------5--5---3-3-3--x-x-x-x---5--|
|-55-5-55-5-55-|-----5---5---4-4-4--x-x-x-x---5--| za 4. razem
|-77-7-77-7-77-|----7----7---5-5-5--x-x-x-x---7--|
|-77-7-77-7-77-|-7-7-----7---5-5-5--x-x-x-x---7--|
|-55-5-55-5-55-|-------------3-3-3--x-x-x-x------|

Pozdro wszyscy gitarowcy
Made by Runner - niebardzo@interia.pl

Dodaj komentarz ...i/lub link do filmiku video

Zaloguj się do serwisu
Ostatnie komentarze
1.
Runner
2008-11-11 20:40
chodzi o to ze raz je slychac a raz nie i w sumie nie wiem kiedy powinny byc grane a kiedy nie heheh wedle uznania
2.
jo3
2008-02-10 22:52
Jak interpretować zapisy w nawiasach? (0), albo przy zwrotkach (5) ?
3.
Dejw
2007-06-06 22:15
Opracowanie naprawdę ładnie zrobione. Pozdro!
4.
jacobbs
2007-06-06 16:22
Kurde jeśli sam to opracowałeś to szcunek V,,
5.
kamilRTS
2007-04-29 16:33
fajna piosenka i jak na punkrockową wcale nie taka łatwa...
6.
Runner
2005-09-22 01:21
Mniej więcej w połowie solówki zapomniałem skasować kilku cyferek, powinno być: |-9p10p9-5-7-9p10p9-5-7-9---9p12p10-9p10p9-5-7-9-| a jest: |-9p10p9-5-7-9p10p9-5-7-9---10p12p10-10-9p10p9-5-7-5-9-10-| To by było na tyle. Trzymta sie
Wszelkie materiały i wypowiedzi zamieszczone na www.chords.pl są własnością ich autorów.