Zacznij systematycznie uczyć się grać na gitarze razem ze stroną Moja nauka - będziesz miał/miała do niej dostęp po zalogowaniu się w serwisie

Judasz - Farben Lehre

Dodał -a: Ushnark,
Redaktor: Miłosz,
Pochodzi z: http://www.farbenlehre.plocman.pl/tabulatury/judasz.txt
Data publikacji: 2007-04-17 00:10
 
Moja nauka


Ups, problem :-/
Zaloguj się Mój śpiewnik
Riff 1

 E5       F5             H5
---------------------------
---------------------------
-99-99-9--1010-1010-10---4-
-99-99-9--1010-1010-10---4-
-77-77-7--8-8--8-8--8----2-
---------------------------

Riff 2
-------------------------------------------
-------------------------------------------
-7\9-999--7-7\9-999--9-99--10---10--4-4----
-7\9-999--7-7\9-999--9-99--10-9-----4-4----
-5\7-777--5-5\7-777--7-77--8--8-----2-2----
-------------------------------------------

Riff 3
----------------0~--
----------------0~--
-------9--------7~--
----9-----8~--9-----
-7------------------
--------------------

Riff 4
---------------------------------------------------\
--------------------------------------------------- \
------9-99-9--7-7-77755-5-------9-99-9-------------  \ dwa
-2--2-9-99-9--7-7-77755-5--2--2-9-99-9--3--3--5--5-  / razy
-2--2-7-77-7--5-5-55533-3--2--2-7-77-7--3--3--5--5- /
-0--0----------------------0--0---------1--1--3--3-/

Zwrotka:
E5,F5
Refren:
E5,C5

Riff podczas 2 i 3 zwrotki:
----------------------------------------------------------------------------
----------------------------------------------------------------------------
----------------------------------------------------------------------------
---------------------------------9-9-9-9-9-9-9-9-10-10-10-10-10-10-10-10-10-
-7-7-7-7-7-7-7-7-8-8-8-8-8-8-8-8--------------------------------------------
----------------------------------------------------------------------------

Dodaj komentarz ...i/lub link do filmiku video

Zaloguj się do serwisu
Wszelkie materiały i wypowiedzi zamieszczone na www.chords.pl są własnością ich autorów.