Zacznij systematycznie uczyć się grać na gitarze razem ze stroną Moja nauka - będziesz miał/miała do niej dostęp po zalogowaniu się w serwisie

Czekanie na znak - Farben Lehre

Opracował -a: chronictown1,
Redaktor: Miłosz,
Pochodzi z: http://www.chords.pl
Data publikacji: 2006-02-02 00:10
 
Moja nauka


Ups, problem :-/
Zaloguj się Mój śpiewnik
Czekanie na znak
Melodia
------------------------------------------
-----------------------12-----------------
-9-9-9-9-9---9-9-11-12----11-12-11-12-11--
------------------------------------------
------------------------------------------
------------------------------------------

--------------------------------------------------
----------10-----------------8--------------------
-7-7-9-10----9-10-9--5-5-7-8---8-7-8--4-5-4-5-4-5-
--------------------------------------------------
--------------------------------------------------
--------------------------------------------------


Praktycznie cała piosenka
E D A H

koncowka przerywnik
E G A C H

Dodaj komentarz ...i/lub link do filmiku video

Zaloguj się do serwisu
Wszelkie materiały i wypowiedzi zamieszczone na www.chords.pl są własnością ich autorów.