Zacznij systematycznie uczyć się grać na gitarze razem ze stroną Moja nauka - będziesz miał/miała do niej dostęp po zalogowaniu się w serwisie

Spisek - Farben Lehre

Opracował -a: adam_98,
Redaktor: Tomek Pietrzkowski,
Pochodzi z: http://www.chords.pl
Data publikacji: 2007-11-05 00:02
 
Moja nauka


Ups, problem :-/
Zaloguj się Mój śpiewnik
wstęp i zwrotka

|---------------------------------|
|---------------------------------|
|-------------5-9-----------------|
|-7-7-7-7-7-7-5-9-7-7-7-7-7-7-9-3-|
|-7-7-7-7-7-7-3-7-7-7-7-7-7-7-9-3-|
|-5-5-5-5-5-5-----5-5-5-5-5-5-7-5-|

ref.

|-------------------------------
|-------------------------------
|-7-7-7-3-3-----------------5-9-
|-7-7-7-3-3-7-7-7-7-7-7-7-7-5-9-
|-5-5-5-5-5-7-7-7-7-7-7-7-7-3-7-
|-----------5-5-5-5-5-5-5-5-----

|---------------------------------
|---------------------------------
|-7-7-7-7-3-3-----------------5-9-
|-7-7-7-7-3-3-7-7-7-7-7-7-7-7-5-9-
|-5-5-5-5-5-5-7-7-7-7-7-7-7-7-3-7-
|-------------5-5-5-5-5-5-5-5-----

Dodaj komentarz ...i/lub link do filmiku video

Zaloguj się do serwisu
Wszelkie materiały i wypowiedzi zamieszczone na www.chords.pl są własnością ich autorów.