Zacznij systematycznie uczyć się grać na gitarze razem ze stroną Moja nauka - będziesz miał/miała do niej dostęp po zalogowaniu się w serwisie

Siła w NAS! - Farben Lehre

Dodał -a: dreykot,
Redaktor: Miłosz,
Data publikacji: 2006-01-05 00:10
 
Moja nauka


Ups, problem :-/
Zaloguj się Mój śpiewnik
Farben Lehre - Siła w nas


Intro\Refren
-------------0--0---------------
-------------0--0---------------
-5--5--7--7--0--0---------------
-5--5--7--7--2--2--5--5-5-5-5-5-
-3--3--5--5--2--2--5--5-5-5-5-5-
-------------0--0--3--3-3-3-3-3-

Główny riff
------------------------
---------------8-8--7-7-
-9--9-7-9--9-9-7-7--7-7-
-9--9-7-9--9-9----------
-7--7-7-7--7-7----------
------------------------

W zwrotce gitara "piszczy" a bas gra takie coś
--------------------
--------------------
----------3--3-5-5--
-0--0-3-3-----------

Dodaj komentarz ...i/lub link do filmiku video

Zaloguj się do serwisu
Ostatnie komentarze
1.
hiren
2006-05-27 10:41
Autorem opracowania nie jest dreykot!!! Jest nim Michał, opracowanie ŚCIĄGNIĘTE ze strony: www.dhost.info/flehre (www.fl.xu.pl). Z tych opracowań korzysta też Wojtek Wojda z FL na stronie oficjalnej (www.farbenlehre.plocman.pl)
Wszelkie materiały i wypowiedzi zamieszczone na www.chords.pl są własnością ich autorów.