Zacznij systematycznie uczyć się grać na gitarze razem ze stroną Moja nauka - będziesz miał/miała do niej dostęp po zalogowaniu się w serwisie

Krew jak śnieg - Kult

Opracował -a: david182,
Dodał -a: david182,
Redaktor: Tomek Pietrzkowski,
Data publikacji: 2009-07-27 10:19
 
Moja nauka


Ups, problem :-/
Zaloguj się Mój śpiewnik
-----------------------------
-----------------------------
x-x-4-xxx-x-4-x----------6--7
x-x-4-xxx-x-4-x--4-4-4-4-----
-----------------------------
-----------------------------

Ref.
-----------------------------
-----7---6-------------------
-4-----------6/7\6-----------
-----------------------------
-----------------------------
-----------------------------

Zwr.
-----------------------------
-----------------------------
-xxxxxxxxxxx--6/7------------
-44444444444--6/7------------
-----------------------------
-----------------------------

Solo:
--------------------------------
--------------------------------
4---4-8-11~-11-15-15-15-10-10-9~
--4-----------------------------
--------------------------------
--------------------------------

--------------------------------
--------------------------------
4---4-8-11~-11-15-15-15-17-17-16
--4-----------------------------
--------------------------------
--------------------------------

Dodaj komentarz ...i/lub link do filmiku video

Zaloguj się do serwisu
Wszelkie materiały i wypowiedzi zamieszczone na www.chords.pl są własnością ich autorów.