Zacznij systematycznie uczyć się grać na gitarze razem ze stroną Moja nauka - będziesz miał/miała do niej dostęp po zalogowaniu się w serwisie

Pan Pancerny - Kult

Opracował -a: g-j,
Redaktor: Tomek Pietrzkowski,
Pochodzi z: http://www.chords.pl
Data publikacji: 2006-12-18 00:28
 
Moja nauka


Ups, problem :-/
Zaloguj się Mój śpiewnik
Riff – wstęp na organach i refren

E|-----------------------------------------------------------------------------
B|--10-8-10-8-10----10-8-10-8----8-10---11-10-11-10-11----11-10-11-10----10-11-
G|---------------10-----------10-----------------------12-------------12-------
D|-----------------------------------------------------------------------------
A|-----------------------------------------------------------------------------
E|-----------------------------------------------------------------------------

E|--10-8-10-8-10----10-8-10-8-10-----------------------------------------------
B|---------------11--------------11----11/13-11-13-11---10-11-10---8-----------
G|--------------------------------------------------------------------10-------
D|-----------------------------------------------------------------------------
A|-----------------------------------------------------------------------------
E|-----------------------------------------------------------------------------

Zwrotki: (nie słychać gitary więc rozpisałem tylko bas)

G|-----------------------------------------------------------------------------
D|-----------------------------------------------------------------------------
A|--5-5-0-5--5----------5-5-0-5--5----------5-5-0-5--5----------3--3--3--5-5-5-
E|-------------7-7-666-------------7-7-666-------------7-7-666-----------------

Refren:

d   G   A#   F   a


to chyba tyle bo reszty organów ani sekcji dętej nie udało mi się 
przerobić na gitarę:)

Dodaj komentarz ...i/lub link do filmiku video

Zaloguj się do serwisu
Ostatnie komentarze
1.
g-j
2007-06-17 13:26
w wielkich mękach zapisałem jeszcze organy hammonda w zwrotce(ale sa BARDZO orientacyjne,ponieważ słabo je słychać głównie bazowałem na akordach ze zwrotki) : e|--5--5-----5-5--7-7---8-------| |--5--5-----5-5--8---------| B|--6--6-----6-6--6-6---6-------| |--3--3-----3-3--6---------| G|--7--7-----7-7--7-7---7-------| x 3 |--4--4-----4-4--7---------| D|----------------------8-------|a potem |--5--5-----5-5--8---------| A|------------------------------| |--------------------------| E|------------------------------| |--------------------------| i jeszcze rozpisany bas w refrenie: G|----------------------|----------------------|----------------------|----------------------| D|----------------------|--5-5-5---5-5--5-5-5--|--8-8-8---8-8--8-8-8--|--3-3-3---7-7--7-7-5--| A|--5-5-5---5-5--5-5-5--|----------------------|----------------------|----------------------| E|----------------------|----------------------|----------------------|----------------------| a niekiedy końcówka(4 takt) leci tak: G|----------------------| D|--3-3-3---3-2--2-3-2--| A|----------------------| E|----------------------| i w ogóle w 4 takcie mozna sporo improwizować;) pozdrawiam i proszę o poprawki bo aktualnie rozpisuję ten utwór w guitar pro i kazda koncepcja się przyda;)
2.
Flo
2007-03-28 11:10
no brawo ! zajebiste opracowanie ! ^ ^
3.
g-j
2007-02-08 08:09
a zwrotka na akordach chyba leci tak: d A# d A# d A# G A# ale nie jestem na 100% pewien.
Wszelkie materiały i wypowiedzi zamieszczone na www.chords.pl są własnością ich autorów.