Zacznij systematycznie uczyć się grać na gitarze razem ze stroną Moja nauka - będziesz miał/miała do niej dostęp po zalogowaniu się w serwisie

Ballada o dwóch siostrach - Kult

Opracował -a: Matfiej Darewicz Ilicz,
Redaktor: Miłosz,
Pochodzi z: http://www.chords.pl
Data publikacji: 2006-06-30 00:10, Poprawiono 2009-06-19 22:18
 
Moja nauka


Ups, problem :-/
Zaloguj się Mój śpiewnik
były dwie.........................

 c   G   c          G   c
-------------------------------------------
------------4--------------4---------------
---5---4---5-5----5---4---5-5--------------
--5---5---5----5-5---5---5---5-------------
-3---5---3------3---5---3------------------
-------------------------------------------

noc byla..........................

 Gis    c    G  c   G   c
-------------3-----------------------------
----4--------3-------------4---------------
---5-5----5--4----5---4---5-5--------------
--6---6--5---5---5---5---5---5-------------
-6------3----5--3---5---3------------------
-------------------------------------------

noc byla...........................

 c   Gis B    D  c   G   c
--------------5----------------------------
--------------7-------------4--------------
---5---5---6--7----5---4---5-5-------------
--5---6---8---7---5---5---5---5------------
-3---6---8----5--3---5---3-----------------
-------------------------------------------

hej.................................

 Gis    c    G  c   G   c
-------------3-----------------------------
----4--------3-------------4---------------
---5-5----5--4----5---4---5-5--------------
--6---6--5---5---5---5---5---5-------------
-6------3----5--3---5---3------------------
-------------------------------------------

i tak do drugiego solo

potem glośno akordami

ooo!! taką balladę...................c G c G c
śpiewal mi...........................Gis c G c G c
śpiewal mi...........................c Gis B D
Dublin to............................c G c G c
więc to com..........................Gis c G c G c
więc to com..........................c Gis B D

powtarzam...........................

----------------------------
------------4---------------
---5---4---5-5--------------
--5---5---5---5-------------
-3---5---3------------------
----------------------------

hej.................................

 Gis    c    G  c   G   c
-------------3-----------------------------
----4--------3-------------4---------------
---5-5----5--4----5---4---5-5--------------
--6---6--5---5---5---5---5---5-------------
-6------3----5--3---5---3------------------
-------------------------------------------

Dodaj komentarz ...i/lub link do filmiku video

Zaloguj się do serwisu
Ostatnie komentarze
1.
kozik-22
2011-03-15 13:53
Byly dwie ... d A d Smierc wieksza... d A d Noc byla... B d A Smierc byla... d A d Noc byla... [ d B C E Smierc byla... d A d ] x2 Hej noony... B d A Smierc byla... d A d proponuje jeszcze tak ...
2.
kiyuu
2011-03-07 21:29
a jakie będzie tu bicie. Jestem początkująca i jeszcze ze słuchu nie umiem rozpoznać.
3.
rasta_666
2011-03-03 13:37
Po poprawnym przetransponowaniu: Byly dwie... a E a E a c G c G c Noc byla... F a E a E a Gis c G c G c Noc byla... a F G H a E a c Gis B D c G c hej noony... F a E a E a Gis c G c G c a F G H c Gis B D
4.
Tomek Pietrzkowski
2009-06-19 22:19
Ustawiłem akordy nad tabulaturą, więc będzie łatwiej zagrać :-)
5.
KarolS27
2009-06-08 17:05
Wydaję mi się że raczej: zwrotka a a e a a e a d d a e e a Ref d d a e e a
Wszelkie materiały i wypowiedzi zamieszczone na www.chords.pl są własnością ich autorów.