Zacznij systematycznie uczyć się grać na gitarze razem ze stroną Moja nauka - będziesz miał/miała do niej dostęp po zalogowaniu się w serwisie

Onyx - Kult

Opracował -a: umber,
Pochodzi z: http://www.chords.pl
Data publikacji: 2005-05-23 01:09
 
Moja nauka


Ups, problem :-/
Zaloguj się Mój śpiewnik
Gitara:

ref: (Wołajcie...)
C D
F D

przejście: (Lecz zanim...)

G As
(A ci...)
G As
(Gdy przy...)
G As H

outro (jak refren):
C D
F C
-------------
Bas

zwrotka

G||------------------------|-------------9--7--------|------------------------|
D||------------------------|-------------------9-----|------------------------|
A||--7--7-------7--7-------|--7--7----------------7--|--5--5--0----5--5----0--|
E||----------7----------7--|----------7--------------|------------------------|


-------------------------||---------9--7--------------|
-------------------5-----||*--------------9-----------|
--5--5----0--5--5-----5--||*--7--7-----------7--7-----|
-------------------------||------------------------7--|


4x
-------------------------|--------7----------------|--------------------------||
-------------------------|-------------------------|-------------------5-----*||
--7--7-------7--7-----7--|--5--5-----0--5--5----0--|--5--5----0--5--5-----5--*||
----------7--------7-----|-------------------------|--------------------------||

refren - praktycznie to co gitara ;-)

Dodaj komentarz ...i/lub link do filmiku video

Zaloguj się do serwisu
Wszelkie materiały i wypowiedzi zamieszczone na www.chords.pl są własnością ich autorów.