Zacznij systematycznie uczyć się grać na gitarze razem ze stroną Moja nauka - będziesz miał/miała do niej dostęp po zalogowaniu się w serwisie

Nie mamy szans - Kult

Opracował -a: szkozielek,
Dodał -a: szkozielek,
Redaktor: Seba,
Pochodzi z: http://www.chords.pl/
Data publikacji: 2015-08-22 07:33
 
Moja nauka


Ups, problem :-/
Zaloguj się Mój śpiewnik
Intro

       G||------3--5-----------------------------------||
       D||---5-----------------------------------------||
       A||------------3--5--6--5-----------------------||
       E||---------------------------------------------||


Zwrotka

     (Podzielę zwrotkę na dwie części, ponieważ gdzieś w połowie utworu jest grana inna wstawka)

     Część 1

       G||------3--5----------------|
       D||---5----------------------|
       A||------------3--5--6--5----|3x (od początku vokalu KAZIKA)
       E||--------------------------|


       G||--------------------------|
       D||--------------------------|
       A||---3--3---6-5--3--3--3--3-|1x
       E||--------------------------|

     Część 2

       G||------3--5----------------|
       D||---5----------------------|
       A||------------3--5--6--5----|3x (od początku vokalu KAZIKA)
       E||--------------------------|


       G||--------------------------|
       D||--------------------------|
       A||----3--3--3--3------------|1x
       E||--------------------------|


Refren


       G||-------------|---------------------------||
       D||--------0----|-------0--3--1--1----------||
       A||--1--1----3--|-1-1-1-------------3-------||
       E||-------------|---------------------------||


       G||-------------|---------------------------||
       D||--------0----|-------0--1----------------||
       A||--1--1----3--|-3-3-3---------------------||
       E||-------------|--------------3------------||


       G||--------------------|------------------------------||
       D||--------------0-----|----------0--3--1--1----------||
       A||3--1-1-1-1-1------3-|--3--1-1-1-------------3------||
       E||--------------------|------------------------------||


       G||-------------|---------------------------||
       D||--------0----|-------0--1----------------||
       A||--1--1----3--|-3-3-3---------------------||
       E||-------------|--------------3------------||
Dodał: szkozielek, 2015-08-22 07:40
Opracowania video z komentarzy

Dodaj komentarz ...i/lub link do filmiku video

Zaloguj się do serwisu
Wszelkie materiały i wypowiedzi zamieszczone na www.chords.pl są własnością ich autorów.