Zacznij systematycznie uczyć się grać na gitarze razem ze stroną Moja nauka - będziesz miał/miała do niej dostęp po zalogowaniu się w serwisie

Dom wschodzącego słońca - Kult

Dodał -a: tomekb8,
Redaktor: Dzideek,
Data publikacji: 2009-12-30 12:37
 
Moja nauka


Ups, problem :-/
Zaloguj się Mój śpiewnik
Znany           BY KULT


    1 ------------0------------------0--------------------2-------------------1------------------
    2 ---------1----1-------------1-----1--------------3-----3-------------1-----1---------------
    3 ------2----------2-------0-----------0--------2-----------2-------2------------2-----------
    4 -------------------------------------------0-----------------------------------------------
    5 ---0------------------3--------------------------------------------------------------------
    6 ---------------------------------------------------------------1---------------------------

     1 -------------0-----------------0------------
     2 ----------1-----1-----------0-----0---------
     3 -------2-----------2-----1-----------1------
     4-----------------------------------------
     5  ---0----------------------------------------
     6 ---------------------0---------------------


     Czyli mówiąc krócej szybkie piórkowanko (5,3,2,1,2,3) na chwytach: a,C,D,F
                                                                        a,E,a,E   ;p
     a,C,D,F
     a,C,E,E

Miłego grania
Dodał: Bartek Pawłowski, 2015-02-22 07:44
Opracowania video z komentarzy

Dodaj komentarz ...i/lub link do filmiku video

Zaloguj się do serwisu
Ostatnie komentarze
1.
DuMaM
2010-01-03 17:45
a C D F a C E E a C D F a E a E poprawię swa wypowiedz i tak chyba jest najlepiej ^^
2.
DuMaM
2010-01-03 17:35
pomyliłes się przy wpisywaniu bo masz dwa E-dur obok siebie ;]
3.
lestat161
2010-01-02 16:46
tak własnie jest :P
4.
Misiek296
2010-01-02 14:26
znaczy sie a C D F a C E a C D F a E a E
5.
Misiek296
2010-01-02 14:11
a to nie będzie czasem aCDF aCE aEaE ?
6.
charmander
2009-12-30 15:38
banalna piosenka to zagrania, lecz ma coś w sobie :) tabów nie sprawdzałam tak dokładnie ale wydaję mi się, że jest ok ;)
Wszelkie materiały i wypowiedzi zamieszczone na www.chords.pl są własnością ich autorów.