Zacznij systematycznie uczyć się grać na gitarze razem ze stroną Moja nauka - będziesz miał/miała do niej dostęp po zalogowaniu się w serwisie

Moja myszko - Kult

Opracował -a: damienos,
Dodał -a: damienos,
Redaktor: Seba,
Pochodzi z: http://www.chords.pl/
Data publikacji: 2015-11-28 12:05
 
Moja nauka


Ups, problem :-/
Zaloguj się Mój śpiewnik
Kult - Moja myszko
Tabbed by: damienos

Tuning: Standard

[intro]
F G# D# Bb
G# Fm G Cm

[zwrotka 1]
Am
  Na...
Am
Się...
   F
Ty...
  Dm
I...
Am
  Zdawało...
Am
I...
   F
Że...
    Dm
Nie...

[refren]
F            G#
  Moja...
D#           Bb
  Czemu...
G#           Fm
  Moja...
G            Cm
Proszę...
F            G#
  Moja...
D#           Bb
  Dzisiaj...
G#           Fm
  Moja...
G            Cm
Błagam...

[solo 1]
    Am
e|--------------------------------------------------------------------------|
B|--------------------------------------------------------------------------|
G|--5--5-5s7-7-7-7s9-9-9-9b10-9b10-9b10-9b10-9b10-9b10-9b10-9b10-9b10-9b10--|
D|--------------------------------------------------------------------------|
A|--------------------------------------------------------------------------|
E|--------------------------------------------------------------------------|
    F
e|--------------------------------------------------------------------------|
B|----------------------------------8-8-8-8s10-10-10-10s12-12-12-12-12/-----|
G|--5--5-5s7-7-7-7s9-9-9-9b10-9b10------------------------------------------|
D|--------------------------------------------------------------------------|
A|--------------------------------------------------------------------------|
E|--------------------------------------------------------------------------|



[solo 2]
    Am
e|--------------------------------|
B|--------------------------------|
G|--9-9-9-9-9-9-7------5-5-5b6-5--|
D|--------------------------------|
A|--------------------------------|
E|--------------------------------|
        F                 Dm
e|-------------------------------------------------|
B|-------------------------------------------------|
G|----5-7b8--7-5-7-7b8--7-5-7-7b8-7-7b8-7p5--------|
D|--7---------------------------------------7-5----|
A|-------------------------------------------------|
E|-------------------------------------------------|

[outro]
F            G#
  Moja...
D#           Bb
Właśnie...
G#           Fm
  Moja...
G            Cm
By...
F G# D# Bb
C# G# D# Bb
C# G# D# Bb

enjoy!

Dodaj komentarz ...i/lub link do filmiku video

Zaloguj się do serwisu
Wszelkie materiały i wypowiedzi zamieszczone na www.chords.pl są własnością ich autorów.