Zacznij systematycznie uczyć się grać na gitarze razem ze stroną Moja nauka - będziesz miał/miała do niej dostęp po zalogowaniu się w serwisie

Baranek (Zagrywka) - Kult

Opracował -a: zagrywka,
Dodał -a: zagrywka,
Redaktor: zagrywka,
Pochodzi z: http://istv.pl/program,_,zagrywka,s1,e32,kultbaranek.html
Data publikacji: 2012-11-30 15:32
 
Moja nauka


Ups, problem :-/
Zaloguj się Mój śpiewnik
wstep:

e|---------------------------------------|
B|---------------------------------------|
G|--------------------------------7--5---|
D|--7-7-x-x-x-7-7-x-x-x-7-7-x-x-x-7--5---|
A|--7-7-x-x-x-7-7-x-x-x-7-7-x-x-x-5--3---|
E|--5-5-x-x-x-5-5-x-x-x-5-5-x-x-x--------|

zwrotka:

   akcenty             bicie
e|--5--5--5--5----------------------------|
B|--5--5--6--6---|------------------------|
G|--6--6--7--7---|------D-g-A-d--A-d------|
D|--7--7--7--7---|x2----------------------|
A|--7--7--5--5---|------------------------|
E|--5--5----------------------------------|

refren:
     czesc pierwsza 2 razy   |        ...i druga 2 razy
                             |
e|---------------1-1---1-1---|------3-3---3-3---1-1---1-1---------------1-1---1-1---|
B|---2-2---2-2---3-3---3-3---|------3-3---3-3---3-3---3-3---2-2---2-2---3-3---3-3---|
G|---0-0---0-0---2-2---2-2---|------3-3---3-3---2-2---2-2---0-0---0-0---2-2---2-2---|
D|---2-2---2-2-0-------------|----------------0-------------2-2---2-2-0-------------|
A|-o-----------------0-------|----------5-----------0-----0-----------------0-------|
E|-------0-------------------|----3-----------------------------0-------------------|
Dodał: _SiC_, 2014-07-08 11:17
Opracowania video z komentarzy

Dodaj komentarz ...i/lub link do filmiku video

Zaloguj się do serwisu
Wszelkie materiały i wypowiedzi zamieszczone na www.chords.pl są własnością ich autorów.