Zacznij systematycznie uczyć się grać na gitarze razem ze stroną Moja nauka - będziesz miał/miała do niej dostęp po zalogowaniu się w serwisie

Dziewczyna bez zęba na przedzie - Kult

Dodał -a: umber,
Data publikacji: 2005-07-20 00:20
 
Moja nauka


Ups, problem :-/
Zaloguj się Mój śpiewnik
Intro               4x                        4x
---10-10---------------|------------------------|-----------------------------
---------10-10---------|------------------------|-----------------------------
---------------7-7-----|------------------------|-----------------------------
-----------------------|-0--0-0-3-0--3-0--------|-----------------------------
-----------------------|------------------1-----|-----------------------------
-----------------------|------------------------|-----------------------------


Zwrotka
------------------------|------------------|----------------------------------
------------------------|------------------|----------------------------------
------------------------|------------------|----------------------------------
-0--0-0-3-0--3-0--------|-5--------7-------|----------------------------------
------------------1-----|-5--------7-------|----------------------------------
------------------------|-3--------5-------|----------------------------------
 Wybrałem cię...           Nie myślałem...

------------------------|--------------------------|--------------------------
------------------------|--------------------------|--------------------------
------------------------|--------------------------|--------------------------
-0--0-0-3-0--3-0--------|-5--------7-x-x-x-x-x-7---|--------------------------
------------------1-----|-5--------7-x-x-x-x-x-7---|--------------------------
------------------------|-3--------5-x-x-x-x-x-5---|--------------------------
 Ten dzień...             To jeszcze...

Refren

 Dm    A#    G
-5-----6-----3----------------------------------------------------------------
-6-----6-----3----------------------------------------------------------------
-7-----7-----4----------------------------------------------------------------
-7-----8-----5----------------------------------------------------------------
-5-----8-----5----------------------------------------------------------------
-5-----6-----3----------------------------------------------------------------
 Czy myślałaś...

Solo (No może nie jest to do końca solówka, ale przyjąłem taką nazwę dla tego fra
gmentu :))
-----------------|-------------|-----------------|------------|---------------
-----------------|-------------|-----------------|----------6-|---------------
-----------------|------5-7----|-----------------|------5-7---|---------------
-7--7-5---5------|-7--7-----8--|-7--7-5---5------|-7--7-------|---------------
--------8---8-5--|-------------|--------8---8-5--|------------|---------------
-----------------|-------------|-----------------|------------|---------------

Bridge (po 2 refrenie)
                   2x
---------------------|--------------------------------------------------------
---------------------|--------------------------------------------------------
-10--6---------------|--------------------------------------------------------
-10--6---------------|--------------------------------------------------------
-8---4--12\\\\\\\\\\-|--------------------------------------------------------
---------------------|--------------------------------------------------------

               7x                           2 razy
------------------|--------------------|--------------------------------------
------------------|--------------------|--------------------------------------
--7-x-x-x-x-5-x-x-|-7---------5-5-5-7--|--------------------------------------
--7-x-x-x-x-5-x-x-|-7---------5-5-5-7--|--------------------------------------
--5-x-x-x-x-3-x-x-|-5-x-x-x-x-3-3-3-3--|--------------------------------------
------------------|--------------------|--------------------------------------

                          8x
----------------------------|-------------------------------------------------
----------------------------|-------------------------------------------------
-5-x-x-7-7--6-5-x-x-7-7-----|-------------------------------------------------
-5-x-x-7-7--6-3-x-x-7-7-----|-------------------------------------------------
-3-x-x-5-5--8-3-x-x-5-5-----|-------------------------------------------------
----------------------------|-------------------------------------------------

Na końcu zwolnione solo i pierwszy takt intra...

Dodaj komentarz ...i/lub link do filmiku video

Zaloguj się do serwisu
Ostatnie komentarze
1.
adam_98
2008-04-26 16:49
lepiej to popraw tak żeby było równo bo jak narazie to sie rozczytać nie idzie
2.
omelanczuk
2006-08-13 19:02
chcialbym poprawic ta solowke wg mojego ucha wyglada nastepujaco: -----------------|-------------|-----------------|------------|--------------- -----------------|-------------|-----------------|---------6-5-|--------------- -----------------|------5-7----|-----------------|-----5-7----4|--------------- -7--7-5---5------|-7--7-----8-5|-7--7-5---5------|7--7--------|--------------- --------8---8-5--|-------------|--------8---8-5--|------------|--------------- -----------------|-------------|-----------------|------------|--------------- w outrze oczywiscie
Wszelkie materiały i wypowiedzi zamieszczone na www.chords.pl są własnością ich autorów.