Zacznij systematycznie uczyć się grać na gitarze razem ze stroną Moja nauka - będziesz miał/miała do niej dostęp po zalogowaniu się w serwisie

Goopia Peezda - Kult

Opracował -a: Avien,
Data publikacji: 2005-04-01 00:05
 
Moja nauka


Ups, problem :-/
Zaloguj się Mój śpiewnik
Kult - Goopia Peezda





E-|---------------------------------------------------------------------------|
B-|---------------------------------------------------------------------------|
G-|---------------------------------------------------------------------------|
D-|-3---/--/--/--/--/10-------------------------------------------------------|
A-|-3--/--/--/--/--/-10-------------------------------------------------------|
E-|-1-/--/--/--/--/--8--------------------------------------------------------|





E-|---------------------------------------------------------------------------|
B-|---------------------------------------------------------------------------|
G-|---------------------------------------------------------------------------|
D-|-7-7-7-7-10---7-7-7-7-8-5--------------------------------------------------|
A-|-7-7-7-7-10---7-7-7-7-8-5--------------------------------------------------|
E-|-5-5-5-5-8----5-5-5-5-6-3--------------------------------------------------|





E-|--------------------refren-------------------------------------------------|
B-|---------------------------------------------------------------------------|
G-|---------------------------------------------------------------------------|
D-|-7-7-x-10-7-7-x-8----------------------------------------------------------|
A-|-7-7-x-10-7-7-x-8----------------------------------------------------------|
E-|-5-5-x-8--5-5-x-6----------------------------------------------------------|





E-|----------------------------zwrotka----------------------------------------|
B-|---------------------------------------------------------------------------|
G-|---------------------------------------------------------------------------|
D-|-7--7--7--7--7--10-10-10-7--7--7--7--7--0--8--5----------------------------|
A-|-7--7--7--7--7--10-10-10-7--7--7--7--7--0--8--5----------------------------|
E-|-5--5--5--5--5--8--8--8--5--5--5--5--5--0--6--3----------------------------|

Dodaj komentarz ...i/lub link do filmiku video

Zaloguj się do serwisu
Wszelkie materiały i wypowiedzi zamieszczone na www.chords.pl są własnością ich autorów.