Zacznij systematycznie uczyć się grać na gitarze razem ze stroną Moja nauka - będziesz miał/miała do niej dostęp po zalogowaniu się w serwisie

Kiedy ucichną działa - Kult

Opracowali: Flo, szkozielek,
Dodali: Flo, szkozielek,
Redaktor: Tomek Pietrzkowski,
Pochodzi z: http://www.chords.pl
Data publikacji: 2009-09-29 09:19, Poprawiono 2015-08-22 07:39
 
Moja nauka


Ups, problem :-/
Zaloguj się Mój śpiewnik
wydaje mi się, że motyw przewodni tej piosenki to :


H gis



powinno być dobrze.. na tych dźwiękach można tez grac początki solo

Zwrotka

G||----------------------------|---------------------------||
D||----------------------------|---------------------------||
A||----2----2----------4-----x-|---2-------2----------4--x-||
E||--------------4-------------|-------4--------4----------||

Refren

G||--------------------------------------------------------||
D||---9-9---9-9--------------------------------------------||
A||--------------11----------------------------------------||
E||-------------------9-9--9-9----12-----------------------||

Tab do basu dodał użytkownik szkozielek

Dodaj komentarz ...i/lub link do filmiku video

Zaloguj się do serwisu
Ostatnie komentarze
1.
wujcik
2009-11-23 18:46
Powinno byc: H cis moll
Wszelkie materiały i wypowiedzi zamieszczone na www.chords.pl są własnością ich autorów.