Zacznij systematycznie uczyć się grać na gitarze razem ze stroną Moja nauka - będziesz miał/miała do niej dostęp po zalogowaniu się w serwisie

Udana transakcja - Kult

Opracował -a: raphagorn,
Dodał -a: raphagorn,
Redaktor: Tomek Pietrzkowski,
Pochodzi z: http://www.chords.pl/
Data publikacji: 2016-07-16 11:01
 
Moja nauka


Ups, problem :-/
Zaloguj się Mój śpiewnik
Uwaga: piosenka nagrana w stroju odrobinę podwyższonym względem standardowego.

Nie opisuję dokładnego bicia akordów - trzeba posłuchać piosenki i je wyczuć.

Intro 1:

D|---4--2-----------------4--2--------|
A|---------4--2--2--x--x--------4--2--|

intro 2:

     C#5
E|--(9)--|
H|---9---|
G|---6---|

intro 3:

     Cis5 Fis E
E|--(9)---6---4--|
H|---9----7---5--|    x3
G|---6----6---4--|

zejście 1:

     Cis5
E|--(9)------------------|
H|---9-------------------|
G|---6----5--4--3--2--1--|

zejście 2:

     Cis5 E   Dis
E|--(9)---4---2-----9\\\\|
H|---9----5---3-----9\\\\|
G|---6----4---2----------|
                  szybki ślizg w dół

zwrotka:
                      cis
E|--------------------9--9--9--|
H|--------------------9--9--9--|
G|--------------------9--9--9--|
D|-----------------------------|
A|---------7-------------------|
E|---9--9-----7----------------|
   główny riff       wstawki grane
  (lekko tłumiony)   na takich dźwiękach

refren: intro 3 z zejściem 2
końcowy ślizg tylko raz, na końcu drugiego refrenu)

solo:

G|---6--4-------------------4-------6-------|
D|---------6-----4--6--7-------6----6-------|
                                   tutaj jakiś reverb
                                   (lub można uderzyć
                                   dwudźwięk kilka razy)
zejście z sola/outro:

G|---9--9--9--9--9s8--8--6--|
D|---9--9--9--9--9s8--8--6--|
A|---7--7--7--7--7s6--6--4--|

Tam gdzie Kazik robi wokalizę: gitara milczy.

Bas:

D|---------2------|
A|---4--------2---|

przez całą piosenkę, poza zejściem z sola i outrem, gdzie gra pod gitarę:

A|---7--7--7--7--7s6--6--4--|
Dodał: raphagorn, 2016-07-16 11:02
Opracowania video z komentarzy

Dodaj komentarz ...i/lub link do filmiku video

Zaloguj się do serwisu
Wszelkie materiały i wypowiedzi zamieszczone na www.chords.pl są własnością ich autorów.