Zacznij systematycznie uczyć się grać na gitarze razem ze stroną Moja nauka - będziesz miał/miała do niej dostęp po zalogowaniu się w serwisie

Dwururka - Kult

Opracował -a: damienos,
Dodał -a: damienos,
Redaktor: Tomek Pietrzkowski,
Pochodzi z: http://www.chords.pl/
Data publikacji: 2016-10-19 09:25
 
Moja nauka


Ups, problem :-/
Zaloguj się Mój śpiewnik
Tabbed by: damienos

Tuning: Standard

[intro]
F#m
F#m
F#m
F#m

[intro] (+trąbka)
F#m
F#m
F#m
F#m

[zwrotka 1]
F#m
Październik, listopad,
F#m
ten kurz...
F#m
listopad...
F#m
wtedy nasz...
F#m
list doszedł...
F#m
że wracasz po...
F#m
jest trochę...
F#m
jeśli ty...

[refren]
F#m                  E
Pójdę z tobą do kina na...
F#m                       A        B
z chłopakiem się postaram...
F#m                     E
Pójdę z moją dziewczyną na...
F#m                       A        B
z chłopakiem się postaram na...

[intro]
F#m
F#m

[zwrotka 2]
F#m      F#m F#m   F#m Gm
Ja z nią a,      ty  ze mną,
    F#m      F#m         F#m  F#m Gm
już teraz mi wszystko jedno
F#m    F#m F#m  F#m Gm
tu źle to,    widziane,
     F#m        F#m        F#m  F#m Gm
lecz kimś się innym nie stanę
F#m      F#m  F#m  F#m Gm
ksiądz mówił,    z ambony,
   F#m        F#m    F#m  F#m Gm
że jestem już potępiony
F#m F#m F#m  F#m Gm
a mama     i tata
  F#m    F#m      F#m  F#m Gm
tolerują tylko brata

[refren]
F#m                     E
Pójdę z moją dziewczyną...
F#m                       A        B
z chłopakiem się postaram...
F#m                     E
Pójdę z moją dziewczyną na...
F#m                       A        B
z chłopakiem się postaram...

[solo]
    F#m           B#m  C#m   F#m
e|----------------------------------------------------|
B|----------------------------------------------------|
G|----------------6----9--7--6------------------------|
D|---------6-7-9----9---------------------------------|
A|---/9--9--------------------------------------------|
E|----------------------------------------------------|

    F#m    B#m     C#m       F#m
e|----------------------------------------------------|
B|----------------------------------------------------|
G|--6---6--6br6----6----------------------------------|
D|----9---------9----9--7-6---------------------------|
A|---------------------------9------------------------|
E|----------------------------------------------------|

     F#m        B#m  C#m      F#m
e|----------------------------------------------------|
B|----------------------------------------------------|
G|--------------6----9-10--10-6-----------------------|
D|-------6-7-9----9-----------------------------------|
A|---9------------------------------------------------|
E|----------------------------------------------------|

      F#m               B#m       C#
e|----------------------------------------------------|
B|----------------------------------------------------|
G|----6/11--11-9-11-11/13-11-13--13b------------------|
D|----------------------------------------------------|
A|----------------------------------------------------|
E|----------------------------------------------------|

[intro]
F#m
F#m

[zwrotka 3]
F#m  F#m F#m     F#m Gm
Co teraz,    się stanie,
   F#m          F#m     F#m  F#m Gm
tu jest jak w jakimś Iranie
F#m     F#m F#m   F#m Gm
dwupłciowa,    dwururka,
  F#m     F#m          F#m  F#m Gm
wołają na mnie z podwórka
F#m     F#m F#m     F#m Gm
jest trudno,   jest ciężko
  F#m      F#m        F#m  F#m Gm
i tylko czekam na przerwę
F#m      F#m F#m   F#m Gm
chcę z Wami,      obojgiem,
  F#m          F#m     F#m  F#m Gm
a przecież się nie rozerwę

[refren]
F#m                     E
Pójdę z moją dziewczyną..
F#m                       A        B
z chłopakiem się postaram...
F#m                     E
Pójdę z moją dziewczyną na...
F#m                       A        B
z chłopakiem się postaram..

[refren]
F#m                     E
Pójdę z moją dziewczyną na...
F#m                       A        B
z chłopakiem się postaram ...
F#m                     E
Pójdę z moją dziewczyną na...
F#m                       A        B
z chłopakiem się postaram na...

[outro]
F#m

enjoy!

Dodaj komentarz ...i/lub link do filmiku video

Zaloguj się do serwisu
Wszelkie materiały i wypowiedzi zamieszczone na www.chords.pl są własnością ich autorów.