Zacznij systematycznie uczyć się grać na gitarze razem ze stroną Moja nauka - będziesz miał/miała do niej dostęp po zalogowaniu się w serwisie

Komu bije dzwon - Kult

Opracował -a: kombajn,
Data publikacji: 2004-09-12 23:29
 
Moja nauka


Ups, problem :-/
Zaloguj się Mój śpiewnik
Początek. Motyw ten powtarza się też w trakcie zwrotki, 
tylko że jest on troszke inny  iczasami w innej kolejności.



e-----------------|-----------------------|-----------------|
h-----------------|-----------------------|-----------------|
g-2-----0-2-0---0-|-0-2-0-----------------|-2-----0-2-0---0-|
d---0-2-------2---|-------3-2-0-----------|---0-2-------2---|
a-0-------0-------|---0---------3-2-0---0-|-0-------0-------|
e-----0-----------|-------------------3---|-----0-----------|

e-----------------------|-----------------|-----------------------|
h-----------------------|-----------------|-----------------------|
g-0-2-0-----------------|-2-----0-2-4-2---|-0-2-0-----------------|
d-------3-2-0-----------|---0-2---------2-|-------3-2-0-----------|
a---0---------3-2-3-2-0-|-0-------0-------|---0---------3-2-0---0-|
e-----------------------|-----0-----------|-------------------3---|

e-----------------|---------------------|
h-----------------|---------------------|
g-2-----0-2-4-5-2-|-2-0-----------------|
d---0-2-----------|-----3-2-0-----------|
a-0-------0-------|-0---------3-2-0---0-|
e-----0-----------|-----------------3---|


Ref.

F e F e

Dodaj komentarz ...i/lub link do filmiku video

Zaloguj się do serwisu
Ostatnie komentarze
1.
madozzi
2011-03-03 17:33
moim skromnym zdaniem vers: F e F e F e E a refren: F e F e F C E a
2.
g-j
2009-09-25 23:07
pawelos: nie, tak jest źle.
3.
pawelooss
2009-09-25 20:25
A może tak? :) Ref.: a E a E d a E a :D
4.
kuba1808
2006-10-06 10:34
wydaje mi sie ze zamiast d-2 a-- e-0 powinno byc poprostu d-2 moim zdaniem brzmi "ladniej" oprocz tego tab nawet fajny
5.
marskosc_watroby
2006-07-04 17:32
tab jest niezły, wcześniuej widziałem tylko opracowanie "patricka mazurka" które sie grało tylko na jednej strunie jednocześńie. ta wersja mi sie znacznie bardziej podoba, ale właśnie...nie ma solo :/ to w sumie powazny bład, ale ogólnie daję 4+ za opracowanie :D
6.
marskosc_watroby
2006-07-04 17:31
tab jest niezły, wcześniuej widziałem tylko opracowanie "patricka mazurka" które sie grało tylko na jednej strunie jednocześńie. ta wersja mi sie znacznie bardziej podoba, ale właśnie...nie ma solo :/ to w sumie powazny bład, ale ogólnie daję 4+ za opracowanie :D
7.
dobromir
2004-10-29 14:43
W tabie są drobne błedy, refren leci FeFeFeEa*2, gdzie solo?
Wszelkie materiały i wypowiedzi zamieszczone na www.chords.pl są własnością ich autorów.