Zacznij systematycznie uczyć się grać na gitarze razem ze stroną Moja nauka - będziesz miał/miała do niej dostęp po zalogowaniu się w serwisie

Spokojnie - Kult

Opracował -a: pulllak,
Dodał -a: pulllak,
Redaktor: Tomek Pietrzkowski,
Pochodzi z: http://www.chords.pl/
Data publikacji: 2017-02-07 09:23
 
Moja nauka


Ups, problem :-/
Zaloguj się Mój śpiewnik
Główny motyw:

G|--------------------------------|
D|--------------8/9---------------|
A|------------------------7---9---|
E|7-------------------------------|

Na początku co drugi raz opuszczamy slide 8/9. Potem robimy za każdym razem, 
tylko w pewnych momentach go opuszczając. Najprościej po prostu wsłuchać się mocno w piosenkę
i wyczuć, kiedy to robić, a kiedy nie ;)


W przejściu natomiast jest (choć nie mam 100% pewności) coś takiego:

G|--------------------------------|
D|--------------------------------|
A|------------------------7-7-9-9-|
E|7-7-7-7-7-7-7-7-7-7-7-7---------|

G|--------------------------------|
D|--------------------------------|
A|------------------------7---9---|
E|7-7-7-7-7-7-7-7-7-7-7-7---------|

Dodaj komentarz ...i/lub link do filmiku video

Zaloguj się do serwisu
Ostatnie komentarze
1.
pulllak
2017-06-30 16:55
Równie dobrze można to też robić na strunach wyżej: G|--------------3/4---------------| D|------------------------2---4---| A|2-------------------------------| E|--------------------------------|
Wszelkie materiały i wypowiedzi zamieszczone na www.chords.pl są własnością ich autorów.