Zacznij systematycznie uczyć się grać na gitarze razem ze stroną Moja nauka - będziesz miał/miała do niej dostęp po zalogowaniu się w serwisie

Karinga - Kult

Opracował -a: reggaester,
Dodał -a: reggaester,
Redaktor: Tomek Pietrzkowski,
Pochodzi z: http://www.chords.pl
Data publikacji: 2010-07-25 11:23
 
Moja nauka


Ups, problem :-/
Zaloguj się Mój śpiewnik
Strój Drop D

Intro:
  6x
e|-------------------------|
B|-------------------------|
G|----------8-8------------|
D|-------------------------|
A|-------------------------|
D|-------------------------|

Intro cd :
  8x
e|----------------------------------------|
B|----------------------------------------|
G|----------------------------------------|
D|--X\-------1------4------3------8-------|
A|----\------1------4------3------8-------|
D|-----\-----1------4------3------8-------|


Zwrotka:

    P.M       P.M      P.M         P.M
e|--------------------------------------------------------------------|
B|--------------------------------------------------------------------|
G|-----------------------------3-3-3-3-3-3----------------------------|
D|-1-1-1-1--4-4-4-4--3-3-3-3---3-3-3-3-3-3----------------------------|
A|-1-1-1-1--4-4-4-4--3-3-3-3---1-1-1-1-1-1----------------------------|
D|-1-1-1-1--4-4-4-4--3-3-3-3------------------------------------------|

Refren:

e|--------------------------------------------------------------------|
B|--------------------------------------------------------------------|
G|-4-----3------8-x-8-8-----------------------------------------------|
D|-4-----3------8-x-8-8-----------------------------------------------|
A|-2-----1------6-x-6-6-----------------------------------------------|
D|--------------------------------------------------------------------|

Dodaj komentarz ...i/lub link do filmiku video

Zaloguj się do serwisu
Wszelkie materiały i wypowiedzi zamieszczone na www.chords.pl są własnością ich autorów.