Zacznij systematycznie uczyć się grać na gitarze razem ze stroną Moja nauka - będziesz miał/miała do niej dostęp po zalogowaniu się w serwisie

Uwiąd starczy - Kult

Dodał -a: defibrylator666,
Redaktor: Tomek Pietrzkowski,
Data publikacji: 2008-01-17 08:36
 
Moja nauka


Ups, problem :-/
Zaloguj się Mój śpiewnik
X - stłumienie struny

Intro:
E---------------------------------------------------------
H---------------------------------------------------------
G---------------------------------------------------------
D---------------------------------------------------------
A---------------------------------------------------------
E---5--5--5----X----1--1--1----X----5--5--5----X----1----6

Zwrotka:
E---X--X--X----X--X----X--X--X----X--X----X--X--X----X--X----X----X
H---X--X--X----X--X----X--X--X----X--X----X--X--X----X--X----X----X
G---X--X--X----X--X----X--X--X----X--X----X--X--X----X--X----X----X
D---7--7--7----X--X----3--3--3----X--X----7--7--7----X--X----3----8
A---7--7--7----X--X----3--3--3----X--X----7--7--7----X--X----3----8
E---5--5--5----X--X----1--1--1----X--X----5--5--5----X--X----1----6

Ref:
   H      G
Armia... alfons...
   F      C
Brlin... burdel...
   H      G
Flet... figiel...
   F      C
Egipt... eunuch...
   H      G
Polska... wojna...
   F      C
Sejm... seks...
   H      G
Dusza... kościół...
   F
Wszyscy ludzie chcą być wolni.
   C

ojojojoj
E--X----X--
H--X----X--
G--X----X--
D--3----8--
A--3----8--
E--1----6--

Outro:
E---X--X--X----X--X----X--X--X----X--X----X--X--X----X--X----X----X
H---X--X--X----X--X----X--X--X----X--X----X--X--X----X--X----X----X
G---X--X--X----X--X----X--X--X----X--X----X--X--X----X--X----X----X
D---7--7--7----X--X----3--3--3----X--X----7--7--7----X--X----3----8
A---7--7--7----X--X----3--3--3----X--X----7--7--7----X--X----3----8
E---5--5--5----X--X----1--1--1----X--X----5--5--5----X--X----1----6

E---X--X--X----X--X----X----X----X
H---X--X--X----X--X----X----X----X
G---X--X--X----X--X----X----X----X
D---7--7--7----X--X----3----8----7
A---7--7--7----X--X----3----8----7
E---5--5--5----X--X----1----6----5

Dodaj komentarz ...i/lub link do filmiku video

Zaloguj się do serwisu
Wszelkie materiały i wypowiedzi zamieszczone na www.chords.pl są własnością ich autorów.