Zacznij systematycznie uczyć się grać na gitarze razem ze stroną Moja nauka - będziesz miał/miała do niej dostęp po zalogowaniu się w serwisie

Amnezja - Kult

Opracował -a: tMQ,
Dodał -a: tMQ,
Redaktor: Tomek Pietrzkowski,
Pochodzi z: http://www.chords.pl
Data publikacji: 2009-11-02 14:55
 
Moja nauka


Ups, problem :-/
Zaloguj się Mój śpiewnik
Wstęp [bass]

g|-----------------
d|-----------------
a|-----------------
e|-0---5---0---7---

g|-----------------
d|-----------------
a|---------4-2-----
e|-0---5-------0---



Zwrotka [gitara]

g|--------------------------------------
d|----------2--2-2-2--------------------
a|-2--2-2-2-0--0-0-0-2--2-2-2-2-2-2-2---
e|-0--0-0-0----------0--0-0-0-0-0-0-0---

g|--------------------------------------
d|----------4--4-4-4--------------------
a|-2--2-2-2-2--2-2-2-2--2-2-2-2-2-2-2---
e|-0--0-0-0----------0--0-0-0-0-0-0-0---

g|--------------------------------------
d|----------2--2-2-2--------------------
a|-2--2-2-2-0--0-0-0-2--2-2-2-2-2-2-2---
e|-0--0-0-0----------0--0-0-0-0-0-0-0---

g|-----------------------------------
d|-6-6-6-6-4-4-4-4-------------------
a|-4-4-4-4-2-2-2-2-2-2-2-2-2-2-2-2---
e|-----------------0-0-0-0-0-0-0-0---



Refren [gitara]

g|-----------------------------------
d|---------2-2-2-2---------4-4-4-4---
a|-2-2-2-2-0-0-0-0-2-2-2-2-2-2-2-2---
e|-0-0-0-0---------0-0-0-0-----------

g|-----------------------------------
d|---------2-2-2-2-6-6-6-6-4-4-4-4---
a|-2-2-2-2-0-0-0-0-4-4-4-4-2-2-2-2---
e|-0-0-0-0---------------------------

g|-----------------------------------
d|---------2-2-2-2---------4-4-4-4---
a|-2-2-2-2-0-0-0-0-2-2-2-2-2-2-2-2---
e|-0-0-0-0---------0-0-0-0-----------

g|-----------------------------
d|---------2-2-2-2---6--4------
a|-2-2-2-2-0-0-0-0---4--2--2---
e|-0-0-0-0-----------------0---

Dodaj komentarz ...i/lub link do filmiku video

Zaloguj się do serwisu
Wszelkie materiały i wypowiedzi zamieszczone na www.chords.pl są własnością ich autorów.