Zacznij systematycznie uczyć się grać na gitarze razem ze stroną Moja nauka - będziesz miał/miała do niej dostęp po zalogowaniu się w serwisie

Pot i kreff - Kult

Opracowali: g-j, kfyatek,
Pochodzi z: http://www.chords.pl
Data publikacji: 2006-01-07 14:17
 
Moja nauka


Ups, problem :-/
Zaloguj się Mój śpiewnik
Zwrotka:
Jadę...      G
Motorze...   F G
Jadę...      G
Może...      F G

Refren:
Pot...       C G
Pot...       C G
Wszystkie... A
Spadły...    G
Pot...       C G
Pot...       C G
Jadę...      A
Dumnie...    G


g-j: solo czyli motyw ze stawki większej niż życie:
e|-------------------------------------------------------------- 
B|--------------------10--9------------------------------------- 
G|----7-9-11-----9-11-------9-7-9---------9-12--11-------------- 
D|--9---------12--------------------11-12----------12-11-12~~--- 
A|-------------------------------------------------------------- 
E|-------------------------------------------------------------- 

e|-------------------------------------------------------------- 
B|-------------------------------------------------------------- 
G|-------------------------------------------------------------- 
D|--12--12b/r(14)--12b/r(14)------------------------------------ 
A|----------------------------13-14~~--------------------------- 
E|--------------------------------------------------------------

Dodaj komentarz ...i/lub link do filmiku video

Zaloguj się do serwisu
Ostatnie komentarze
1.
Tomek Pietrzkowski
2008-08-31 14:49
g-j: Próbowałem to jakoś posklejać, ale w komentarzach są różne taby różnych osób. Nie jestem pewien czy dobrze to skleję. Mam prośbę, abyś sam to zrobił, bo najlepiej wiesz jak powinno być. Nowe połączone opracowanie wyślij do poczekalni. ok?
2.
g-j
2008-08-31 12:38
Tomek Pietrzykowski: dzięki;) jakbys mógł to zrób to samo z solo do brooklinskiej rady żydów Kultu, solo jest oddzielnie ale w komentarzach są jeszcze inne fragmenty..będę wdzięczny;)
3.
Tomek Pietrzkowski
2008-08-30 23:40
g-j: Przeniosłem Twoje solo z komentarza do treści opracowania. A te drugie przysłane przez kogoś skasowałem.
4.
Tomus1991
2007-09-19 22:08
Sorry, ale za chu... nie pasują te akordy. Nie dość że inna tonacja, to i są przejścia, których w tym opracowaniu brakuje...
5.
g-j
2007-05-29 12:02
solo czyli motyw ze stawki większej niż życie: e|-------------------------------------------------------------- B|--------------------10--9------------------------------------- G|----7-9-11-----9-11-------9-7-9---------9-12--11-------------- D|--9---------12--------------------11-12----------12-11-12~~--- A|-------------------------------------------------------------- E|-------------------------------------------------------------- e|-------------------------------------------------------------- B|-------------------------------------------------------------- G|-------------------------------------------------------------- D|--12--12b/r(14)--12b/r(14)------------------------------------ A|----------------------------13-14~~--------------------------- E|-------------------------------------------------------------- Legenda: ~ - vibrato b/r - bend/release(podciągnięcie/opuszczenie) - w nawiasie dźwięk do którego trzeba podciągnąć strunę
Wszelkie materiały i wypowiedzi zamieszczone na www.chords.pl są własnością ich autorów.