Zacznij systematycznie uczyć się grać na gitarze razem ze stroną Moja nauka - będziesz miał/miała do niej dostęp po zalogowaniu się w serwisie

Wystarczy byś był - Piosenki Religijne

Dodał -a: Zocim,
Redaktor: Arthur,
Pochodzi z: http://www.chords.pl
Data publikacji: 2008-02-05 09:08
 
Moja nauka


Ups, problem :-/
Zaloguj się Mój śpiewnik
Wystarczy byś był, nic więcej

e|-3-3-1-0---1-1-0--------------
B|---------1--------------------
G|------------------------------
D|------------------------------
A|------------------------------
E|------------------------------

Tylko byś był, nic więcej

e|-3-1-0---1-1-0----------------
B|-------1----------------------
G|------------------------------
D|------------------------------
A|------------------------------
E|------------------------------

By Twoje słowa utuliły mnie...

e|-3-3-3---5-5-5-5--7--5--3--5--3--5--3---
B|----------------------------------------
G|----------------------------------------
D|----------------------------------------
A|----------------------------------------
E|----------------------------------------

Dodaj komentarz ...i/lub link do filmiku video

Zaloguj się do serwisu
Wszelkie materiały i wypowiedzi zamieszczone na www.chords.pl są własnością ich autorów.