Zacznij systematycznie uczyć się grać na gitarze razem ze stroną Moja nauka - będziesz miał/miała do niej dostęp po zalogowaniu się w serwisie

Tobie chór aniołów (tab) - Piosenki Religijne

Opracował -a: wojkon,
Dodał -a: wojkon,
Redaktor: Seba,
Pochodzi z: http://www.chords.pl/
Data publikacji: 2013-01-15 14:12
 
Moja nauka


Ups, problem :-/
Zaloguj się Mój śpiewnik
Tobie chór aniołów śpiewa nową pieśń
Chwała Barankowi

e|-----------8-5-------5-5---5------------
H|--6-6-6-6------8-6-8---------6-6---6----
G|---------------------------------7---7-5
D|----------------------------------------
A|----------------------------------------
E|----------------------------------------


Tobie chór aniołów śpiewa nową pieśń
Chwała Barankowi

e|-----------8-5-------5-5---5---------5--
H|--6-6-6-6------8-6-8---------6-6---6---8
G|---------------------------------7------
D|----------------------------------------
A|----------------------------------------
E|----------------------------------------


Alleluja, alleluja, alleluja
Chwała i cześć

e|--5--------5-----5--5------------5------
H|----8-8-6----8-8------8-8-6--6-8---8----
G|----------------------------------------
D|----------------------------------------
A|----------------------------------------
E|----------------------------------------

Dodaj komentarz ...i/lub link do filmiku video

Zaloguj się do serwisu
Ostatnie komentarze
1.
blanka1315
2013-01-16 11:51
Bardzo fajne i myślę , że dobre są Twoje opracowania. :) Przynajmniej pod względem takim , że i tekst dajesz i ładnie tabulatura jasno i czysto rozpisana. Proste do zagrania. Dla mnie duże TAK !
Wszelkie materiały i wypowiedzi zamieszczone na www.chords.pl są własnością ich autorów.