Zacznij systematycznie uczyć się grać na gitarze razem ze stroną Moja nauka - będziesz miał/miała do niej dostęp po zalogowaniu się w serwisie

Jezus Chrystus moim panem jest - Piosenki Religijne

Opracował -a: zerstorer,
Redaktor: Tomek Pietrzkowski,
Data publikacji: 2008-06-24 00:01
 
Moja nauka


Ups, problem :-/
Zaloguj się Mój śpiewnik
Jezus Chrystus moim panem jest, alleluja  | x2
-------------------------------------
-------------------------------------
-------------------------------------
-------------------------------------
-0-0-3-3-3-0-3-4-5-7-3-2-3-4-6-5-4---
-----------------------------------5-

On kocha mnie, on kocha mnie, alleluja    | x2
-------------------------------------
-------------------------------------
-------------------------------------
-0-5-5-5-3-2-3-3-3-6-2-1-2-3-5-4-3---
-----------------------------------5-
-------------------------------------

Dodaj komentarz ...i/lub link do filmiku video

Zaloguj się do serwisu
Wszelkie materiały i wypowiedzi zamieszczone na www.chords.pl są własnością ich autorów.