Zacznij systematycznie uczyć się grać na gitarze razem ze stroną Moja nauka - będziesz miał/miała do niej dostęp po zalogowaniu się w serwisie

Oto idzie mój Bóg - Piosenki Religijne

Opracował -a: wojkon,
Dodał -a: wojkon,
Redaktor: Seba,
Pochodzi z: http://www.chords.pl/
Data publikacji: 2013-01-15 15:02
 
Moja nauka


Ups, problem :-/
Zaloguj się Mój śpiewnik
Oto idzie mój Bóg
Oto idzie mój Król
Oto Zbawiciel mój
A imię Jego Jezus

e|--5-5-5--------5-5-5-----5---5-5-5-----------------5-5-6-5--
H|--------8-6-6--------8-6-----------8-6-6---6-6-6-8---------8
G|------------------------------------------------------------
D|------------------------------------------------------------
A|------------------------------------------------------------
E|------------------------------------------------------------


Tęsknię za Tobą, Panie
Wiem, ze przyjdziesz niebawem
Z głębi serca dziś wołam
Maranatha!
e|----------5-5-------------5-5-------------5-5-----5-----5---
H|--6-6-6-8-----8---6-6-6-6-----8---6-6-6-6-----8-----8-6-----
G|------------------------------------------------------------
D|------------------------------------------------------------
A|------------------------------------------------------------
E|------------------------------------------------------------


e|----------5-5-------------5-5-------------5-5-----5---------
H|--6-6-6-8-----8---6-6-6-6-----8---6-6-6-6-----8-----8-6-6---
G|------------------------------------------------------------
D|------------------------------------------------------------
A|------------------------------------------------------------
E|------------------------------------------------------------

Dodaj komentarz ...i/lub link do filmiku video

Zaloguj się do serwisu
Ostatnie komentarze
1.
aniolznieba
2018-04-16 21:14
pieśń stworzyła s. Franciszka Godlewska z wsp "św Pawła" w Kielcach
Wszelkie materiały i wypowiedzi zamieszczone na www.chords.pl są własnością ich autorów.