Zacznij systematycznie uczyć się grać na gitarze razem ze stroną Moja nauka - będziesz miał/miała do niej dostęp po zalogowaniu się w serwisie

Oczyszczenie (tab) - Piosenki Religijne

Opracował -a: Catcher,
Redaktor: Tomek Pietrzkowski,
Pochodzi z: http://www.chords.pl
Data publikacji: 2009-04-21 00:01
 
Moja nauka


Ups, problem :-/
Zaloguj się Mój śpiewnik
Zwrotka:
                  Patrzysz na mnie          takim wzrokiem
----------------0-------------0-----4-----4-------------4------
--------------2---2---------2---2---5---5---5---------5---5----
------------2-------2----2--------2-6-6-------6----6--------6--
---------------------------------------------------------------
-------2-0------------0-------------4-----------4--------------
-0-2-3---------------------------------------------------------

  że z tego wszystkiego aż płakać mi się chce
-2-----2-------------2-----2-----2-----------------------------
-3---3---3---------3---3---3---3---3---------------------------
-2-2-------2----2--------2-4-4-------4-------------------------
-0-----------0-------------------------------------------------
---------------------------2-----------2--------------2-0------
------------------------------------------------0-2-3----------

Refren:
E
 W Twoim spojrzeniu słońca,
D
 w Twoim tchnieniu wiatru,
E
 w Twojej tęsknocie deszczu
h
 czuję miłość Twoja, Panie.
E
 W moim smutku i radości,
D
 w moim zwątpieniu i pewności
E              h
 czuję, czuję miłość Twoją Jahwe!

Dodaj komentarz ...i/lub link do filmiku video

Zaloguj się do serwisu
Wszelkie materiały i wypowiedzi zamieszczone na www.chords.pl są własnością ich autorów.