Zacznij systematycznie uczyć się grać na gitarze razem ze stroną Moja nauka - będziesz miał/miała do niej dostęp po zalogowaniu się w serwisie

Ofiaruję Tobie Panie Mój (tab) - Piosenki Religijne

Opracował -a: zlo21,
Redaktor: michassel,
Pochodzi z: http://www.chords.pl
Data publikacji: 2009-02-06 22:01
 
Moja nauka


Ups, problem :-/
Zaloguj się Mój śpiewnik
   D              A              h     D             G
e||--5-5-5-5-5--|--5-----------|-----|--5----------|-----|
H||-------------|-----8--7--8--|--7--|----8--7--5--|--3--|
G||-------------|--------------|-----|-------------|-----|
D||-------------|--------------|-----|-------------|-----|
A||-------------|--------------|-----|-------------|-----|
H||-------------|--------------|-----|-------------|-----|
 D              e     A7
|--5----------|-----|--------------|
|----8--7--3--|--5--|--5--------5--|
|-------------|-----|-----6--7-----|
|-------------|-----|--------------|
|-------------|-----|--------------|
|-------------|-----|--------------|
 D              A              h     D             G
|--5-5-5-5-5--|--5-----------|-----|--5----------|--------|
|-------------|-----8--7--8--|--7--|----8--7--5--|--3--7--|
|-------------|--------------|-----|-------------|--------|
|-------------|--------------|-----|-------------|--------|
|-------------|--------------|-----|-------------|--------|
|-------------|--------------|-----|-------------|--------|
  A         D
|--------|------||
|--5--3--|--3---||
|--------|------||
|--------|------||
|--------|------||
|--------|------||

Dodaj komentarz ...i/lub link do filmiku video

Zaloguj się do serwisu
Ostatnie komentarze
1.
Dejw
2009-06-30 18:18
Miejscami znam ciut inną melodię - tzn dwa te same dźwięki zamiast takiego stopniowania coraz to wyżej. Ale to w różnych miejscach może być różnie śpiewane. Ogólnie tab poprawny.
2.
aniapatalan
2009-06-30 12:36
Moim zdaniem ta tabulatura jest zła... za nic nie pasuje mi do piosenki
Wszelkie materiały i wypowiedzi zamieszczone na www.chords.pl są własnością ich autorów.